Dismiss Notice

Psst... Ready to join TalkBass and start posting, make new friends, sell your gear, and more?  Register your free account in 30 seconds.

tab for cleavland rocks need

Discussion in 'Tablature and Notation [BG]' started by T-BIRD bassist, Jul 15, 2004.


  1. T-BIRD bassist

    T-BIRD bassist

    Jun 24, 2004
    My band wants to cover cleavland rocks and i cant find the tabs any where do any of u possibly know a site with this tab or know the song.
     
  2. modflea

    modflea

    Apr 26, 2004
    Lafayette, LA
    Great song. Check the credits for the name of the artist (I can't remember his name right now) and do a search using that. It might help.
     
  3. Matthew Bryson

    Matthew Bryson Guest

    Jul 30, 2001
    I think it was originally done by Cheap Trick and later covered by The Presidents of the United States. I couldn't find a bass tab (but I didn't spend too long looking) I saw a few guitar tabs. I'll link one that I found interesting - mostly because it looks like chords, but the "tabber" called it tabs - he actually used the word "tab" in place of the word "note" (E is the lowest tab played - :confused: )
    http://www.taborama.com/archive/tab...es&t=The Drew Carey Show: Cleveland Rocks&i=4
     
  4. bluntman_bass

    bluntman_bass

    Jul 13, 2004
    Wilcox, NE
    yeah im almost certain that the presidents of the united states sing the song, check some more sites under that artists name
     
  5. basser47

    basser47

    Jul 10, 2004
    I don't6 have any Cleaveland rocks tab but please check your private messages and reply. Thanx man
     
  6. Cleaveland rocks is indeed by The Presidents of the USA, they have no bassist, and they have no guitarist, they have an "in between" that plays a lower register guitar.
     
  7. Brat

    Brat

    Jun 4, 2004
    NW Indiana.
    I have the Drew Carey Show CD and Ian Hunter did the orig. version and Predidents of the USA covered it.
     
  8. quallabone

    quallabone

    Aug 2, 2003
    It's a really easy tune. If you have a recording you could learn it in a good however long the song is x2.
     
  9. Finger Blister

    Finger Blister

    Jul 8, 2003


    CLEVELAND ROCKS - Ian Hunter (1979)


    |---------|---------|------------------------|
    |---------|---------|------------------------|
    |---------|---------|------------------------|
    |---------|---------|-0--0--0--0-0--0--0--0--|


    |-----------0---0----------|---------------------------|
    |--------------------------|-6---6--6--6--6---6--6--6--|
    |-4--4-4--4---4---4--4--4--|---------------------------|
    |--------------------------|---4------------4----------|


    |-------------------------|------------------------|
    |-6--6-6--6---6--6-6--6---|-2--2--2--2--2--2--2----|
    |-------------------------|---------------------3--|
    |-----------4-----------4-|------------------------|


    |-----------0---0----------|------------1--1-1--1---|
    |--------------------------|------------------------|
    |-4--4-4--4---4---4--4--4--|------------------------|
    |--------------------------|-4--4-4--3------------4-|


    |--------------------------|--------------------------|
    |-6--6-6--6---6---6--6--6--|--------------------------|
    |--------------------------|-8--8--8--8-8--8--8--8----|
    |-----------4---4----------|-----------------------1--|


    |------------------------|-------------------------|
    |-0--0--0--0-0--0--0--0--|---------------------2---|
    |------------------------|-4--4--4--4--4--4--4-----|
    |------------------------|-------------------------|


    |-------------------------|-----------------------0-|
    |-3--3--3--3---3--3--3-2--|-3--3-3--3---1--1-1--1---|
    |-------------------------|-------------------------|
    |------------1------------|-----------1-------------|


    |------------------------|-------------------------|
    |-0--0--0--0-0--0--0--0--|-------------------------|
    |------------------------|-4--4--4--4--4--4--4--4--|
    |------------------------|-------------------------|


    |-------------------------|-------------------------|
    |-3--3--3--3-3--3--3--3---|-------------------------|
    |-------------------------|-4--4--4--4--4--4--4--4--|
    |-----------------------1-|-------------------------|


    |-----------------------|----------------------------|
    |-----------------------|-6---6--6--6--6---6--6--6---|
    |-4--4--4--4-4--4-4--4--|----------------------------|
    |-----------------------|---4------------4-----------|


    |------------1--1-1--1---|-----------------------0-|
    |------------------------|-------------------------|
    |------------------------|-4--4--4--4-4--4--4--4---|
    |-4--4-4--3------------4-|-------------------------|


    |------------0-------------|------------------------|
    |-----------------------5--|-6--6--6--6--6--6--6--6-|
    |-4--4--4--4---4--4--4-----|------------------------|
    |--------------------------|------------------------|


    |------------------------|-------------------------|
    |-6--6--6--6--6--6--6----|-------------------------|
    |------------------------|-------------------------|
    |---------------------8--|-4--4--4--4--4--4--4-3---|


    |-1--1--1--1--------------|-------------------------|
    |--------------6--6--6----|-------------------------|
    |----------------------7--|-8--8--8--8--8--8--8-----|
    |------------4------------|---------------------9---|


    |-------------------------------|-------------------------|
    |-------------------------------|-------------------------|
    |-------------------------------|-------------------------|
    |-10--10--10--10--10--10--10-8--|-9--9--9--9-9--9--9--9---|


    |------------------------|-----------------------|
    |------------------------|-3--3-3----------------|
    |------------------------|---------5--6--6-6--4--|
    |-1--1--1--1--1--1--1-0--|-----------------------|


    |------------0------------|-------------------------|
    |-------------------------|-------------------------|
    |-5--5--5--5---5--5--5-3--|-4--4--4--4-4--4--4--4---|
    |-------------------------|-------------------------|


    |-------------------------|-------------------------|
    |-3--3--3--3-3--3--3--3---|-------------------------|
    |-------------------------|-4--4--4--4--4--4--4--4--|
    |-----------------------1-|-------------------------|


    |-----------------------|------------1--1-1--1---|
    |-----------------------|------------------------|
    |-4--4--4--4-4--4-4--4--|------------------------|
    |-----------------------|-4--4-4--3------------4-|


    |------------1------------|-----------------------0--|
    |----------------6--6--6--|--------------------------|
    |-------------------------|-4--4--4--4-4--4--4--4----|
    |-4--4-4--3----4----------|--------------------------|


    |------------0-------------|-------------------------|
    |-----------------------5--|-6--6--6--6---6--6--6----|
    |-4--4--4--4---4--4--4-----|-------------------------|
    |--------------------------|------------4---------8--|


    |------------------------|--------------------------|
    |------------------------|-6--6--6--6-6--6--6--6----|
    |------------------------|--------------------------|
    |-4--4--4--4--4--4--4--4-|-----------------------4--|


    |------------1--1-1--1---|-------------------------|
    |------------------------|-6--6--6--6---6--6--6----|
    |------------------------|-------------------------|
    |-4--4-4--3------------4-|------------4---------8--|


    |----------------------------|------------------------|
    |-6--6--6--6--6--6---6---6-6-|------------------------|
    |----------------------------|------------------------|
    |------------------4---4-----|-4--4--4--4--4--4--4--4-|


    |------------------------|--------------------------|
    |------------------------|-6--6--6--6-6--6--6--6----|
    |------------------------|--------------------------|
    |-4--4--4--4-4--4--4--4--|-----------------------4--|


    |--------------------------|-----------------*|
    |-6--6--6--6--6--6--6--6-6-|-6--6----6-------*|
    |--------------------------|------6----------*|
    |--------------------------|--------------4--*|