Dismiss Notice

Psst... Ready to join TalkBass and start posting, make new friends, sell your gear, and more?  Register your free account in 30 seconds.

Tab for "Let's stay Together"

Discussion in 'Tablature and Notation [BG]' started by tonynoriega, Dec 28, 2004.


  1. tonynoriega

    tonynoriega Supporting Member

    Jun 26, 2004
    Tampa, Florida
    I'm trying to find tab for an old Al Green song that was more recently done by Michael McDonald called "Let's stay Together" and if anyone has a source, please let me know.

    Many thanks!!

    Tony Noriega,
    Tampa
     
  2. Finger Blister

    Finger Blister

    Jul 8, 2003
    Good Luck.
    This should allow you to figure something out.


    LET'S STAY TOGETHER - AL GREEN


    |---------|---------|-------------|--------------|
    |---------|---------|-------------|--------------|
    |---------|---------|------0-3-0--|------0-3-0---|
    |---------|---------|-3-----------|-3------------|


    |-------------|----------------|---------------|-------------------|
    |-------------|----------------|-3----5-7------|-3----5-7-8-10-12--|
    |------0-3-0--|-----------3----|----3-----8----|----3--------------|
    |-3-----------|-3--(3)--3------|------------8--|-1-----------------|


    |----------------------|----------10-12----|-3--5-5-7-----|----5-5-7-------|
    |-------------10-10-11-|-12-------------14-|--------------|-8----------8---|
    |----12-(12)-----------|-----12------------|-----------8--|----------8-----|
    |----------------------|-------------------|--------------|----------------|


    |----------------------|-------------------|
    |-11--11-11-11-----11--|-11--11-11-11---11-|
    |---------------13-----|-------------------|
    |--9-------------------|--9----------------|


    |-----------------------|--------------5----|
    |-----10-------10-10----|---10-10-----------|
    |-12-----12-10-------10-|-8-------8-7----7--|
    |-----------------------|-------------------|


    |---5-5-----5-5---|---5-5-----5-5---|---5-5-----5-5---|-----------------|
    |-----------------|-----------------|-7-----7-5-----5-|-3-3-5-6-7-------|
    |-------5-------5-|-------5-------5-|-----------------|-------------7-6-|
    |-----------------|-----------------|-----------------|-----------5-----|


    |---5-5------5-5----|---5-5-----5-5---|---------------|
    |-------------------|-----------------|-3----5-7------|
    |-------5--------5--|-------5-------5-|----3-----8----|
    |-------------------|-----------------|------------8--|


    |-----------5-7-|-----7-(7)------|---------------|------------------|
    |-3----5-7------|---7------------|---------------|-8--10-10-12------|
    |----3----------|--------------3-|-5------7-8-10-|------------------|
    |-1-------------|------------5---|------5--------|--------------13--|


    |-3--5-5-7------|----------------------|
    |------------8--|-11--11-11-11-----11--|
    |----------8----|---------------13-----|
    |-6-------------|--9-------------------|


    |-------------------|------------------------|
    |-11--11----11---11-|-----10-------10-10-----|
    |--------13---------|-12-----12-10-------10--|
    |--9----------------|------------------------|


    |--------------5---|---5-5-----5-5---|---5-5-----5-5---|---5-5-----5-5---|
    |---10-10----------|-----------------|-----------------|-7-----7-5-----5-|
    |-8-------8-7----7-|-------5-------5-|-------5-------5-|-----------------|
    |------------------|-----------------|-----------------|-----------------|


    |-----------------|---5-5------5-5----|---5-5-----5-5---|
    |-3-3-5-6-7-------|-------------------|-----------------|
    |-------------7-6-|-------5--------5--|-------5---------|
    |-----------5-----|-------------------|---------------5-|


    |-----------------|----------------|--------------------|------------------|
    |---------------5-|--------------5-|--------------------|------------------|
    |-----------------|----5-----------|------3--0-0--0-3---|-0-0-3---0-0-3-0--|
    |-3----3-(3)-3----|-3----3--3-3----|-5--5-------------0-|-------0----------|


    |---------------|-----------------|------------------|
    |---------------|-----------------|------------------|
    |----5----------|---------------0-|-1-1---1-0--0---3-|
    |-3----3-3--3---|-3----3-3--3-----|------------------|


    |----------------|-----------------|----------------|
    |----3-----------|---------------5-|----------5-----|
    |--5---5-3-------|--------5--------|--------5-------|
    |----------0-1-3-|-3--3-----3-3----|-3--3-------3---|


    |-------------------|----------------|--------------------|
    |-------------------|--------5-------|------------------1-|
    |------3--------6---|----------------|------3---------3---|
    |-4--4---4-4--4---4-|-3--3-----3-3---|-4--4----4-4--4-----|


    |-------------------|------------------|----------------|-----------------|
    |-----------------1-|------------------|----3-----------|-3-----5-7-------|
    |------3--------3---|-1-1---1-0--0---3-|--5---5-3-------|---3-3-----8-----|
    |-4--4---4-4--4-----|------------------|----------0-1-3-|-------------8---|


    |-----------7-9-|------------7--|---------------|-------------------|
    |-3----5-7------|---7-----------|---------------|-------------------|
    |----3----------|--------5------|-5------7-8-10-|-------------------|
    |-1-------------|-----5---------|------5--------|-6--8--8--10-10-8--|


    |-----------------|-6--6-6-6-6---6-|---6-6---6-6--6-|-----5-----5-5---|
    |-----------------|------------8---|-------8--------|-7-7---7-5-----5-|
    |-------------1-3-|-4--------------|-4--------------|-----------------|
    |-6--8-8-10-1-----|----------------|----------------|-----------------|


    |---5-5-----------|---5-5-----5-5---|
    |-3-----3-2-2---2-|-----------------|
    |-------------3---|-------5-------5-|
    |-----------------|-----------------|


    |---5-5------------|--------------------------|
    |------------------|----10-10-------10-10-----|
    |-------3-5-7-8-10-|-12-------12-10-------10--|
    |------------------|--------------------------|


    |----------------------|-------------------------|----------------------|
    |----------------------|---10-10-------10-10-----|---10-10------10-10---|
    |-8-8-10-11-12-0-------|-------------------------|--------------------0-|
    |----------------12-11-|---------10----------10--|---------10-----------|


    |---------------|-----------------|----------------------|
    |-------------5-|---------------5-|----------------------|
    |---------------|-----------------|------3----0--0-3-----|
    |-3----3-3-3----|-3-3---3--3-3----|-5--5----0--------3-4-|


    |--------------------|-----------------|-----------------|
    |--------------------|-----------------|---------5-------|
    |------3-----0-0-3-0-|-----------------|---------------0-|
    |-5--5---3-0---------|-3----3-3--3---1-|-3---1-3---3-----|


    |-------------------|--------------------------|----------------|
    |-------------------|--------------------------|----------------|
    |----------0--0-3-0-|--------0-3-3-------------|--------5-------|
    |-3--3---3----------|-3--3---------0-0-1-1-2-3-|-3--3-----3-3---|


    |---------------------|---------------------|----------------------|
    |---------------------|---------------------|--------------------2-|
    |-------5-------------|-0--0-3--3-0--0-3--5-|------3--3-0--0-3-0---|
    |-3-3-----3--3-(3)--3-|---------------------|-5--5-----------------|


    |------------------------|----------------------------|
    |------------------------|----------------------------|
    |------------------5-----|------1---5-----------------|
    |-3--3---3-3--1-3----6-6-|-3--3---3---3-3-1-0-1-0-1-2-|


    |-------------------------|-----------------------------|--------------------|
    |-------------------------|-----------------------------|--------------------|
    |-------------0--0-(0)--0-|-------------3-3-------------|------3---0--0-3-0--|
    |-3--3-(3)--3-------------|-3--3-(3)--3-----0-0-1-1-2-2-|-3--3---3-----------|


    |--------------------------|-------------------|-----------------------|
    |--------------------------|-------------------|-----------------------|
    |------3-0-3-3-------------|--------5----------|-------5------5-5------|
    |-3--3---------0-0-1-1-2-3-|-3--3-----3-3--1-2-|-3-3-----3--3-----3-4--|


    |---------------------|----------------------|
    |---------------------|----------------2-2---|
    |------3--3-0--0-3--5-|------3--3-0--0-----3-|
    |-5--5----------------|-5--5-----------------|


    |------------------------|----------------------------|
    |------------------------|----------------------------|
    |------------------5-----|------1---5-----------------|
    |-3--3---3-3--1-3----6-6-|-3--3---3---3-3-1-0-1-0-1-2-|


    |-------------------------|------------------------------|
    |-------------------------|------------------------------|
    |-------------0--0-(0)--0-|-------------3-3--------------|
    |-3--3-(3)--3-------------|-3--3-(3)--3-----0-0-1-1-2-2--|


    |---------------------------|------------------------------|-----------------|
    |---------------------------|------------------------------|-----------------|
    |----------3---0--0-(0)-3-0-|----------3-0-3-3-------------|--------5--------|
    |-3--3-(3)---3--------------|-3--3-(3)---------0-0-1-1-2-3-|-3--3-----3-3----|


    |---------------------|---------------------|----------------------|
    |---------------------|---------------------|--------------------2-|
    |-------5-------------|-0--0-3--3-0--0-3--5-|------3--3-0--0-3-0---|
    |-3-3-----3--3-(3)--3-|---------------------|-5--5-----------------|


    |------------------------|----------------------------|
    |------------------------|------------5-5-3-----------|
    |------------------5-----|------1---5-------4-5---8-9-|
    |-3--3---3-3--1-3----6-6-|-3--3---3-------------6-----|


    |------------------------------|--------------------------------|
    |---------5------------7-------|----5---5---5-------------------|
    |-10-10------------------------|--------------5-3-3-------------|
    |-------3---3-3-4-5--5----5-4--|-3----3---3---------0-0-1-1-2-2-|


    |------------------------------|---------------7-5---------------|
    |---5--5--5--------7---7-------|---5--5----5-------7---10-8------|
    |------------------------7-----|---------5---3-------8------8----|
    |-3---------3-4-5----5-----6-5-|-3----------------------------10-|


    |----------------*|
    |-5----(5)-------*|
    |----------------*|
    |-3----(3)-------*|