Psst... Ready to join TalkBass and start posting, make new friends, sell your gear, and more?  Register your free account in 30 seconds.

Tab request, Lynyrd Skynyrd, Call Me The Breeze

Discussion in 'Tablature and Notation [BG]' started by GEEZERBOB, Aug 21, 2002.


  1. GEEZERBOB

    GEEZERBOB

    Aug 20, 2002
    chicago
    Does anyone know where I can find tis tab, Thanks for the help!
     
  2. It may be helpful to know that the song was done by Lynryd Skynryd not the A.B.s
     
  3. Turock

    Turock Supporting Member

    Apr 30, 2000
    Melnibone
    ...and you call yourself a geezer.
     
  4. SuperDuck

    SuperDuck

    Sep 26, 2000
    Wisconsin
    I edited the title to alleviate any confusion. You can send my payment via PayPal.
     
  5. Here one way:

    Lynyrd Skynyrd - Call Me the Breeze

    -------
    -------
    ---0---
    --3----
    Is played a few times during the intro.


    G||-----------------|-------|---------------|-------|-------|------------------|
    D||--7---7--57---7--|--54---|---------------|--456--|--654--|------------------|
    A||----7---7---7----|----7--|-5---5---5---5-|------|-------|--7---7--65---5--|
    E||-----------------|-------|---5---57--5---|------|-------|----7---7---5----|
    Part I II III IV V VI

    The quick
    ------ ------
    ---5-- and ------
    --7--- ---6--
    ------ --7---


    is played every other few beats, listen to the song, its easy.

    Play part one a few times, then part II, then III, then IV
    then I some more then V then VI then V and back to I.

    Add some small improv at times.

    This part plays a few times at about 3:20 or so, mixed in with parts I and III.

    ----------------------------|
    ---------024--7-7--5--4--2--|
    -----0--3-------------------|
    ----------------------------|

    p