Dismiss Notice

Psst... Ready to join TalkBass and start posting, make new friends, sell your gear, and more?  Register your free account in 30 seconds.

Taking Back Sunday - You're So Last Summer

Discussion in 'Tablature and Notation [BG]' started by NoahWasAPirate, Jan 26, 2003.


  1. Someone please help me find the bass tabs to the song You're So Last Summer by Taking back Sunday. I have tried to find them all over the place but i cant. i gotta learn how to play it tho cuz the band i am in is playing it for the talent show. So if you could help me i would appreciate it. thanks.
     
  2. jani_bjorklund

    jani_bjorklund

    May 22, 2002
    Finland
    I downloaded the song. I'll have a look at it. The "chorus" is a little bit noisy but I'll see what I can make of it.

    Jan, Finland
     
  3. thanks i have asked a few people about it but i dont really know anyone else that plays bass and i havent been playing long enough to be able to play it by listening to it. so thank u very much.
     
  4. jani_bjorklund

    jani_bjorklund

    May 22, 2002
    Finland
    OK . This is what I came up with. As I said the chorus is very noisy and I'm not very convinced about that part. Try it and judge for yourself!

    you're _so _last_summer

    TablEdited by Jan Bjorklund for NoahWasAPirate

    Tuning : E A D G Time Signature: 4/4

    tempo 150
    |(verse)-------------------------|--------------------------------|
    |------------------------7-------|----------------7---------------|
    |4---4---4---4---4---5-------5---|5---5---5---5-------5---7---5---|
    |--------------------------------|--------------------------------|


    |--------------------------------|--------------------------------|
    |------------------------7-------|----------------7---------------|
    |4---4---4---5---5---5-------5---|3---5---5---5-------5---7---5---|
    |--------------------------------|--------------------------------|


    |--------------------------------|--------------------------------|
    |--------------------------------|--------------------4---2-------|
    |2---2---2---2---2---2---2---2---|2---2---2---2---2-----------4---|
    |--------------------------------|--------------------------------|


    |--------------------------------|--------------------------------|
    |5---5---5---5-------5---5---5---|5---5---5-------5---5---5---5---|
    |--------------------------------|------------5-------------------|
    |--------------------------------|--------------------------------|


    |--------------------------------|--------------------------------|
    |------------------------7-------|----------------7---------------|
    |4---4---4---5---5---5-------5---|3---5---5---5-------5---7---5---|
    |--------------------------------|--------------------------------|


    |--------------------------------|--------------------------------|
    |------------------------7-------|----------------7---------------|
    |4---4---4---4---5---5-------5---|5---5---5---5-------5---7---5---|
    |--------------------------------|--------------------------------|


    |--------------------------------|--------------------------------|
    |--------------------------------|--------------------4---2-------|
    |2---2-------2---2---2---2---2---|2---2---2---2---2-----------4---|
    |--------------------------------|--------------------------------|


    |--------------------------------|--------------------------------|
    |--------------------------------|--------------------------------|
    |--------------------------------|--------------------------------|
    |3---3---3---3---3---3---3---3---|3---3---3---1---0---------------|

    (chorus)
    |--------------------------------|----------------4-----------4---|
    |--------------------------------|------------------------7-------|
    |5-----------5-------------------|5-----------5-------------------|
    |----------------5-----------5---|--------------------------------|


    |--------------------------------|--------------------------------|
    |4-----------4---4---------------|4-------4-------4---4---4-------|
    |--------------------------------|--------------------------------|
    |--------------------------------|--------------------------------|


    |4-----------4---4-----------4---|4-------4-----------4---4---4---|
    |--------------------------------|--------------------------------|
    |--------------------------------|--------------------------------|
    |--------------------------------|--------------------------------|


    |4-------------------------------|--------------------------------|
    |----5---5---------------5---5---|----5---5---5-------5---5---5---|
    |--------------------------------|--------------------------------|
    |--------------------------------|--------------------------------|


    |--------------------------------|----------------4-----------4---|
    |----------------7---------------|------------------------7-------|
    |5-----------5-------------------|5-------------------------------|
    |--------------------------------|--------5-----------------------|


    |----------------2-------4-------|--------------------------------|
    |4-------------------------------|4-------4-------4---4---4---4---|
    |--------------------------------|--------------------------------|
    |--------------------------------|--------------------------------|


    |4-----------4---4-----------4---|4-------4-------4---4---4-------|
    |--------------------------------|--------------------------------|
    |--------------------------------|--------------------------------|
    |--------------------------------|--------------------------------|


    |4-------------------------------|--------------------------------|
    |----5---5-------5-------5---5---|----5---5-----------5---5---5---|
    |--------------------------------|--------------------------------|
    |--------------------------------|--------------------------------|


    |-(verse)------------------------|--------------------------------|
    |------------------------7-------|----------------7---------------|
    |4---4---4---5---5---5-------5---|5---5---5---5-------5---7---5---|
    |--------------------------------|--------------------------------|


    |--------------------------------|--------------------------------|
    |---------------------And so on I guess?--------------------------|
    |--------------------------------|--------------------------------|
    |--------------------------------|--------------------------------|




     
  5. Ok dude. you are seriously my new hero. Thank you so much. It sounds right to me. im still working on getting the whole timing down for the chorus. your right it is really noisy. but thank you so much.