Psst... Ready to join TalkBass and start posting, make new friends, sell your gear, and more?  Register your free account in 30 seconds.

tapping grooves........

Discussion in 'Technique [BG]' started by slapper3, Mar 30, 2001.


  1. slapper3

    slapper3

    Jan 13, 2001
    I really want to learn more tapping....... I can play Jerry was a race car driver but that bores me....and funky ones that people could just tell me the song or make on up by urself and tab it out here........i want to learn more but I dont know any others......
     
  2. Well this isn't really a funky groove, but it's a cool exercise:



    G:----------12------
    D:-------14----14--- X2
    A:----14----------14
    E:-12---------------


    G:----------11------
    D:-------14----14--- X2
    A:----14----------14
    E:-10---------------

    G:---------9------
    D:------14---14--- X2
    A:---14---------14
    E:-8---------------

    G:---------8------
    D:------14---14--- X2
    A:---14---------14
    E:-7---------------

    Well, I hope this tabbed out right!
     
  3. dblbassted

    dblbassted

    Mar 21, 2001
    Memphis, Tn.
    I just started a series of lesspons on two-handed tapping for www.bassically.net The first deals with some very basic chord patterns that should get you sarted. Upcoming lessons include tapped arrangements of jazz standards and some very basic turnaround patterns that can be used in many different styles of music.