Dismiss Notice

Psst... Ready to join TalkBass and start posting, make new friends, sell your gear, and more?  Register your free account in 30 seconds.

Tears in Heaven

Discussion in 'Tablature and Notation [BG]' started by Agent000, Jan 23, 2005.


  1. Agent000

    Agent000

    Jan 23, 2005
    I found a condensed version of Jeff Berlin's Tears in Heaven on video at www.gazzbass.com, bass videos under tenor bass. I've tried to figure it out, but some parts are pretty quick, the video is poor quality, and the guy playing doesn't have fret markers. Please make suggestions, or if you have the full version of the song already tabbed let me know.

    Tears in Heaven

    C|----------------|--12h13p12-----16-18--13----13-9---------------------|
    G|-17p15p14-------|o----------13------------------9------------------14-|
    D|----------17p15-|o--------------14-----11-11-------------14h15h17-----|
    A|----------------|----------------------------------15h17--------------|

    |-14-14-13-------13----16-------14-------|---------------------|
    |-11-11-14-16-14-13-------13-------13----|-----------------14-o|
    |-------------------14-------14-------14-|-------14h15h17-----o|
    |----------------------------------------|-15h17---------------|

    |-13----------13-------13-------12----------12-------12-------|
    |-----14---------14-------14--------13---------13-------13----|
    |---------16--------16-------16---------15--------15-------15-|
    |-------------------------------------------------------------|

    |-11----------11-------11-------10---11-13-14------9--8--6--8--|
    |-----12---------12-------12-----------------------------------|
    |---------14--------14-------14-11---12-14-15------------------|
    |---------------------------------------------0-0--7-----------|

    13--|
    14--|
    14--|
    ----|

    PS - I'm also looking for Berlin's version of Imagine, sounds cool
     
  2. would tuning my bass that high be bad...like give my neck a bow?
     
  3. Agent000

    Agent000

    Jan 23, 2005
    ummm...you cant just tune up like that, you would have to restring with tenor bass strings...like 30,45, 60, 75 or whatever. Then adjust your truss rod and intonation. Or if you had a 6-string or something. Otherwise just play it in a new key, or up 5 frets (or down 7).