Dismiss Notice

Psst... Ready to join TalkBass and start posting, make new friends, sell your gear, and more?  Register your free account in 30 seconds.

That's the Way of The World

Discussion in 'Tablature and Notation [BG]' started by bucephylus, Nov 4, 2005.


  1. bucephylus

    bucephylus Supporting Member Commercial User

    Aug 18, 2002
    General Manager TecPadz LLC
    This Earth Wind and Fire tune has some subtle and interesting things going on, as well as great feel and totally amazing tone.

    Does anyone know of either Tab or transcription for it?
     
  2. poppamies

    poppamies

    Dec 15, 2002
    Here's something to start with. Maby you can figure out the rest by yourself...


    That's The Way Of The World.btab
    Earth Wind and Fire
    TablEdited by Poppamies
    Tuning : E A D G Time Signature: 4/4

    tempo 80
    |6---------------------------8---|6-----------------------8---8---|
    |------------------------------6-|--------------------------6---6-|
    |--------------------------------|--------------------------------|
    |--------------------------------|--------------------------------|


    |6---------------------------8---|6-----------------------8/6-----|
    |------------------------------6-|----------------------------7---|
    |--------------------------------|--------------------------------|
    |--------------------------------|--------------------------------|


    |--------------------------------|--------------------------------|
    |--------------------------------|--------------------------------|
    |4---------------4---4---------2-|4---------------4---4-------2-3-|
    |--------------4---0---------4---|--------------4---0-------4-----|


    |--------------------------------|--------------------------------|
    |--------------------------------|--------------------------------|
    |4---------------4---4---------2-|4---------------4---4---------2-|
    |--------------4---0---------4---|--------------4---0---------4---|


    |--------------------------------|--------------------------------|
    |--------------------------------|--------------------------------|
    |4---------------4---4---------2-|4---------------4---4---------2-|
    |--------------4---0---------4---|--------------4---0---------4---|


    |--------------------------------|--------------------------------|
    |--------------------------------|--------------------------------|
    |4---------------4---4---------2-|4---------------4---4---------2-|
    |--------------4---0---------4---|--------------4---0-------4-----|

    Hearts of fire creates love desire Take you...
    |--------------------------------|--------------------------------|
    |--------------------------------|--------------------------------|
    |4---------------4---4---------2-|4---------------4---4-------2-3-|
    |--------------4---0---------4---|--------------4---0-------4-----|


    |--------------------------------|--------------------------------|
    |--------------------------------|------------------2-------------|
    |4---------------4---4---------2-|4---------------4---4---------2-|
    |--------------4---0---------4---|--------------4-------------4---|

    Hearts of fire creates love desire
    |--------------------------------|--------------------------------|
    |--------------------------------|--------------------------------|
    |4---------------4---4---------2-|4---------------4---4---------2-|
    |--------------4---0---------4---|--------------4---0---------4---|

    High and|higher to your place on the throne
    |--------------------------------|--------------------------------|
    |--------------------------------|------------------2-------------|
    |4---------------4---4---------2-|4---------------4---4---------2-|
    |--------------4---0---------4---|--------------4-----------4-----|

    | We’ve come together on this special day
    |--------------------------------|--------------------------------|
    |------------------2-------------|--------------------------------|
    |4---------------4---4---------2-|4---------------4---4---------2-|
    |--------------4-------------4---|--------------4---0---------4---|


    |--------------------------------|--------------------------------|
    |--------------------------------|------------------2-------------|
    |4---------------4---4-------6---|4---------------4---4---------2-|
    |--------------4---0-----------4-|--------------4-------------4---|


    |--------------------------------|--------------------------------|
    |------------------2-------------|------------------2-------------|
    |4---------------4---4---------2-|4---------------4---4-------2-3-|
    |--------------4-------------4---|--------------4-----------4-----|


    |--------------------------------|--------------------------------|
    |------------------2---------2---|--------------------------------|
    |4---------------4---4-----------|4---------------4---4---4---2-3-|
    |--------------4---------------4-|--------------4---0-------4-----|


    |--------------------------------|--------------------------------|
    |------------------2---------3-4-|5---------------5-7-5-------5---|
    |4---------------4---4-----4-----|--------------6-----------5---5-|
    |--------------4-----------------|--------------------------------|


    |--------------------------------|--------------------------------|
    |4---------------4-2---2-----4---|3---------------3---------------|
    |--------------4-----4---------0-|--------------3-----------------|
    |------------------------2-------|--------------------1-----------|


    |--------------------------------|--------------------------------|
    |----------------4-2---2-----4---|3-------------1-3---------0-2-3-|
    |--------------4-----4---------0-|------------3-------------------|
    |2-----------------------2-------|--------------------1-----------|


    |--------------------------------|--------------------------------|
    |4---------------4---4-------4---|3----------and so on....--------|
    |--------------4---0-------4---0-|--------------------------------|
    |--------------------------------|--------------------------------|
    Transcribe! 6.0 transcription http://www.seventhstring.demon.co.uk/
    Created with TablEdit http://www.tabledit.com/
    http://www.geocities.com/jani_bjorklund/janis.html