Dismiss Notice

Psst... Ready to join TalkBass and start posting, make new friends, sell your gear, and more?  Register your free account in 30 seconds.

The Fixx

Discussion in 'Tablature and Notation [BG]' started by phaneo, Dec 31, 2004.


  1. phaneo

    phaneo

    Mar 14, 2001
    Fort Worth TX
    I play in an 80's cover band and I'm looking for a tab for a song by the Fixx called "One thing leads to another" I haven't sat down to try and figure it out by ear yet. Just wondering if anyone might know where to find it, or if anyone can tab it out. Thanks :help:
     
  2. Finger Blister

    Finger Blister

    Jul 8, 2003
    Here's the Basic's.
    You can throw in a Slap/Pop Octive where appropiate.


    One Thing Leads To Another

    |---------|---------------|-----------|--------------|
    |---------|---------------|-----------|--------------|
    |---------|-1---1--4------|-----------|----4---------|
    |---------|-----------6---|--------4--|-6-----6------|


    |---------|---------------|-----------|--------------|
    |---------|---------------|-----------|--------------|
    |---------|--------4------|-----------|----4---------|
    |---------|-6---6-----6---|--------4--|-6-----6------|


    |---------|--------------|-----------------|-----------------|
    |---------|--------------|----8-(8)--------|-----11----------|
    |---------|--------4-----|-----------6--4--|-13------13------|
    |---------|-6---6-----6--|-----------------|-----------------|


    |-----------|--------------|-----------------|
    |-----------|--------------|----8-(8)--------|
    |-----------|--------4-----|-----------6--4--|
    |--------4--|-6---6-----6--|-----------------|


    |-----------------|-----------|--------------|
    |-----11----------|-----------|--------------|
    |-13------13------|-----------|--------4-----|
    |-----------------|--------4--|-6---6-----6--|


    |-----------------|-----------------|------------|
    |----8-(8)--------|-----11----------|------------|
    |-----------6--4--|-13------13------|------------|
    |-----------------|-----------------|--------4---|


    |--------------|-----------------|-----------------|------------|
    |--------------|----8-(8)--------|-----11----------|------------|
    |--------------|-----------6--4--|---------13------|-------13---|
    |-6---6--6--6--|-----------------|-----------------|------------|


    |---------------|-----------------|----------|---------------|
    |---------------|-----------------|----------|---------------|
    |-13----(13)----|-13------11--13--|-1--------|-(1)----(1)----|
    |---------------|-----------------|----------|---------------|


    |---------------|------------------------|-------------|-------1--3---|
    |---------------|------------------------|-------------|--------------|
    |-13----(13)----|-13--(13)---13--11--13--|-1----(1)----|--------------|
    |---------------|------------------------|-------------|--------------|


    |--------------|-----------------|-----------------|
    |--------------|----8-(8)--------|-----11----------|
    |-1---1--4-----|-----------6--4--|-13------13------|
    |-----------6--|-----------------|-----------------|


    |-----------|--------------|-----------------|
    |-----------|--------------|----8-(8)--------|
    |-----------|--------4-----|-----------6--4--|
    |--------4--|-6---6-----6--|-----------------|


    |-----------------|-----------|--------------|
    |-----11----------|-----------|--------------|
    |-13------13------|-----------|--------4-----|
    |-----------------|--------4--|-6---6-----6--|


    |-----------------|-----------------|------------|
    |----8-(8)--------|-----11----------|------------|
    |-----------6--4--|-13------13------|------------|
    |-----------------|-----------------|--------4---|


    |--------------|-----------------|-----------------|------------|
    |--------------|----8-(8)--------|-----11----------|------------|
    |--------------|-----------6--4--|-13------13------|-------13---|
    |-6---6--6--6--|-----------------|-----------------|------------|


    |---------------|-----------------|----------|---------------|
    |---------------|-----------------|----------|---------------|
    |-13----(13)----|-13------11--13--|-1--------|-(1)----(1)----|
    |---------------|-----------------|----------|---------------|


    |---------------|------------------------|-------------|-----|
    |---------------|------------------------|-------------|-----|
    |-13----(13)----|-13--(13)---13--11--13--|-1----(1)----|-----|
    |---------------|------------------------|-------------|-----|


    |---------------|---------------|---------------|
    |---------------|---------------|---------------|
    |-1---1--1---1--|-1---1--1---1--|-1---1--1---1--|
    |---------------|---------------|---------------|


    |---------------|---------------|---------------|
    |---------------|---------------|---------------|
    |-1---1--1---1--|-1---1--1---1--|-1---1--1---1--|
    |---------------|---------------|---------------|


    |---------------|---------------|---------------|
    |---------------|---------------|---------------|
    |-1---1--1---1--|-1---1--1---1--|-1---1--4------|
    |---------------|---------------|-----------6---|


    |-----------------|-----------------|------------|
    |----8-(8)--------|-----11----------|------------|
    |-----------6--4--|-13------13------|------------|
    |-----------------|-----------------|--------4---|


    |--------------|-----------------|-----------------|
    |--------------|----8-(8)--------|-----11----------|
    |--------4-----|-----------6--4--|-13------13------|
    |-6---6-----6--|-----------------|-----------------|


    |-----------|--------------|-----------------|
    |-----------|--------------|----8-(8)--------|
    |-----------|--------4-----|-----------6--4--|
    |--------4--|-6---6-----6--|-----------------|


    |-----------------|-----------|--------------|
    |-----11----------|-----------|--------------|
    |-13------13------|-----------|--------------|
    |-----------------|--------4--|-6---6--6--6--|


    |-----------------|-----------------|-----------|---------------|
    |----8-(8)--------|-----11----------|-----------|---------------|
    |-----------6--4--|-13------13------|-------13--|-13----(13)----|
    |-----------------|-----------------|-----------|---------------|


    |-----------------|----------|---------------|---------------|
    |-----------------|----------|---------------|---------------|
    |-13------11--13--|-1--------|-(1)----(1)----|-13----(13)----|
    |-----------------|----------|---------------|---------------|


    |------------------------|-------------|-------1--3---|
    |------------------------|-------------|--------------|
    |-13--(13)---13--11--13--|-1----(1)----|--------------|
    |------------------------|-------------|--------------|


    |--------------|-----------------|-----------------|
    |--------------|----8-(8)--------|-----11----------|
    |-1---1--4-----|-----------6--4--|-13------13------|
    |-----------6--|-----------------|-----------------|


    |-----------|--------------|-----------------|
    |-----------|--------------|----8-(8)--------|
    |-----------|--------4-----|-----------6--4--|
    |--------4--|-6---6-----6--|-----------------|


    |-----------------|-----------|--------------|
    |-----11----------|-----------|--------------|
    |-13------13------|-----------|--------4-----|
    |-----------------|--------4--|-6---6-----6--|


    |-----------------|-----------------|------------|
    |----8-(8)--------|-----11----------|------------|
    |-----------6--4--|-13------13------|------------|
    |-----------------|-----------------|--------4---|


    |--------------|-----------------|-----------------|-------13---|
    |--------------|----8-(8)--------|-----11----------|-------15---|
    |--------------|-----------6--4--|-13------13------|-------13---|
    |-6---6--6--6--|-----------------|-----------------|------------|


    |----------)----|-----------------|----------|---------------|
    |---------------|-----------------|----------|---------------|
    |-13----(13)----|-13------11--13--|-1--------|-(1)----(1)----|
    |---------------|-----------------|----------|---------------|


    |---------------|------------------------|-------------|-------1--3---|
    |---------------|------------------------|-------------|--------------|
    |-13----(13)----|-13--(13)---13--11--13--|-1----(1)----|--------------|
    |---------------|------------------------|-------------|--------------|


    |-----------1--3--|-----------1--3--|-----------1--3--|
    |-----------------|-----------------|-----------------|
    |-1---1--1--------|-1---1--1--------|-1---1--1--------|
    |-----------------|-----------------|-----------------|


    |-----------1--3--|-----------1--3--|-----------1--3--|
    |-----------------|-----------------|-----------------|
    |-1---1--1--------|-1---1--1--------|-1---1--1--------|
    |-----------------|-----------------|-----------------|


    |-----------1--3--|-----------1--3--|-----------1--3--|
    |-----------------|-----------------|-----------------|
    |-1---1--1--------|-1---1--1--------|-1---1--1--------|
    |-----------------|-----------------|-----------------|


    |-----------1--3--|-----------1--3--|-----------1--3--*|
    |-----------------|-----------------|-----------------*|
    |-1---1--1--------|-1---1--1--------|-1---1--1--------*|
    |-----------------|-----------------|-----------------*|

     
  3. phaneo

    phaneo

    Mar 14, 2001
    Fort Worth TX
    Man if you tabbed this out for me .....YOU RULE!!!!! thanks for the help :hyper:
     
  4. Finger Blister

    Finger Blister

    Jul 8, 2003
    Try Power tab.

    Grab a midi file.

    It helps most of the time.
     
  5. phaneo

    phaneo

    Mar 14, 2001
    Fort Worth TX
    Thanks, Power Tab is awesome! This tool will be invaluable to me. It's going to sve me hours of work!
     
  6. How about Red Skies at Night?

    The most elusive 80s tab for me is DAY by violent Femmes.