1. Please take 30 seconds to register your free account to remove most ads, post topics, make friends, earn reward points at our store, and more!  

The Move - Brontosaurus

Discussion in 'Tablature and Notation [BG]' started by Jeff Mills, May 12, 2011.


  1. Jeff Mills

    Jeff Mills

    May 12, 2011
    Do I have the beginning close to right? It speeds up twords the end - I have not got that far yet.

    YouTube - Brontosaurus - The Move

    Intro
    ----||-------55-----7-||-5-----------
    ----||-----7----5H7---||---7-5-------
    ----||-5-8------------||-------8-5---
    -8^||-----------------||-----------8-

    Verse
    D D D D E E E E G G G G

    ---------5-----------
    -------7---7-5-------
    ---5-8---------8-5---
    -8-----------------8-
     

Share This Page

  1. This site uses cookies to help personalise content, tailor your experience and to keep you logged in if you register.
    By continuing to use this site, you are consenting to our use of cookies.