Psst... Ready to join TalkBass and start posting, make new friends, sell your gear, and more?  Register your free account in 30 seconds.

The Police

Discussion in 'Tablature and Notation [BG]' started by Swifty, Mar 28, 2005.


  1. Swifty

    Swifty

    Mar 25, 2005
    As a new bassist I would appreciate it if someone could tab me the bass line to the Police tack "One World " from their album"Ghost in the machine".Thanks Swifty. :bassist:
     
  2. DaftCat

    DaftCat

    Jul 26, 2004
    Medicine Hat
    Randomize the lines a bit if you want.. :)


    ------------------------------------------------------------
    -------3---3---3---3---2---2---3---0----2----3--------------
    ------------------------------------------------------------
    ---3---------------------------------------------3----------

    ------------------------------------------------------------
    -------3---3---3---3---2---2---3---0----2---2---3-----------
    ------------------------------------------------------------
    ---3------------------------------------------------3-------
     
  3. Swifty

    Swifty

    Mar 25, 2005
    Cheers Daftcat,much appreciated.Swifty :bassist: