Psst... Ready to join TalkBass and start posting, make new friends, sell your gear, and more?  Register your free account in 30 seconds.

Thompson twins-Love on your side

Discussion in 'Tablature and Notation [BG]' started by Swifty, Apr 28, 2005.


  1. Swifty

    Swifty

    Mar 25, 2005
    Can anybody work out the bass riff to "Love on your side" by the "Thompson Twins" Please. :bassist:
     
  2. Finger Blister

    Finger Blister

    Jul 8, 2003
    Just send me a Cashier's Check or Money Order.



    Thompson Twins - Love On Your Side



    |---------|---------|---------|------------|
    |---------|---------|---------|------------|
    |---------|---------|---------|--------3-4-|
    |---------|---------|---------|------------|


    |-----------------|---------------|------------------|
    |-----------------|---------------|------------------|
    |-5---3-4-5---3-4-|-----------3-4-|-5---3-4-5---3-4--|
    |-----------------|-3--5--0-------|------------------|


    |---------------|-----------------|---------------|
    |---------------|-----------------|---------------|
    |-----------3-4-|-5---3-4-5---3-4-|-----------3-4-|
    |-3--5--0-------|-----------------|-3--5--0-------|


    |-----------------|---------------|------------------|
    |-----------------|---------------|------------------|
    |-5---3-4-5---3-4-|-----------3-4-|-5---3-4-5---3-4--|
    |-----------------|-3--5--0-------|------------------|


    |---------------|-----------------|-----------------|
    |---------------|-----------------|-----------------|
    |-----------3-4-|-5---3-4-5---3-4-|------------3-4--|
    |-3--5--0-------|-----------------|-3--5--0---------|


    |-----------------|---------------|------------------|
    |-----------------|---------------|------------------|
    |-5---3-4-5---3-4-|-----------3-4-|-5---3-4-5---3-4--|
    |-----------------|-3--5--0-------|------------------|


    |---------------|-----------------|---------------|
    |---------------|-----------------|---------------|
    |-----------3-4-|-5---3-4-5---3-4-|-----------3-4-|
    |-3--5--0-------|-----------------|-3--5--0-------|


    |-----------------|---------------|------------------|
    |-----------------|---------------|------------------|
    |-5---3-4-5---3-4-|-----------3-4-|-5---3-4-5---3-4--|
    |-----------------|-3--5--0-------|------------------|


    |---------------|-----------------|------------|-------------|
    |---------------|-----------------|------------|-------------|
    |-----------3-4-|-5---3-4-5---3-4-|------------|-------------|
    |-3--5--0-------|-----------------|-3--5--0----|-5--8--10----|


    |-------------------|-------------|--------------------|
    |-------------------|-------------|--------------------|
    |-------------------|-------------|--------------------|
    |-5--8---10--10--3--|-5--8--10----|-5--8----10--10--3--|


    |-------------|--------------------|-------------|
    |-------------|--------------------|-------------|
    |-------------|--------------------|-------------|
    |-5--8--10----|-5--8----10--10--3--|-5--8--10----|


    |--------------------|-----------------------|---------------|
    |--------------------|-----------------------|---------------|
    |--------------------|-----------------------|-----------3-4-|
    |-5--8---10----10-11-|-12---10-11-12---10-11-|-3--5--0-------|


    |-----------------|---------------|------------------|
    |-----------------|---------------|------------------|
    |-5---3-4-5---3-4-|-----------3-4-|-5---3-4-5---3-4--|
    |-----------------|-3--5--0-------|------------------|


    |---------------|-----------------|---------------|
    |---------------|-----------------|---------------|
    |-----------3-4-|-5---3-4-5---3-4-|-----------3-4-|
    |-3--5--0-------|-----------------|-3--5--0-------|


    |-----------------|---------------|------------------|
    |-----------------|---------------|------------------|
    |-5---3-4-5---3-4-|-----------3-4-|-5---3-4-5---3-4--|
    |-----------------|-3--5--0-------|------------------|


    |----------------|-----------------|------------|-----|
    |----------------|-----------------|------------|-----|
    |------------3-4-|-5---3-4-5---3-4-|------------|-----|
    |-3--5--0--------|-----------------|-3--5--0----|-----|


    |---------|-----------------|---------------|------------------|
    |---------|-----------------|---------------|------------------|
    |---------|-5---3-4-5---3-4-|-----------3-4-|-5---3-4-5---3-4--|
    |---------|-----------------|-3--5--0-------|------------------|


    |---------------|-----------------|---------------|
    |---------------|-----------------|---------------|
    |-----------3-4-|-5---3-4-5---3-4-|-----------3-4-|
    |-3--5--0-------|-----------------|-3--5--0-------|


    |-----------------|------------|-------------|--------------------|
    |-----------------|------------|-------------|--------------------|
    |-5---3-4-5---3-4-|------------|-------------|--------------------|
    |-----------------|-3--5--0----|-5--8--10----|-5--8---10--10--3---|


    |-------------|--------------------|-------------|
    |-------------|--------------------|-------------|
    |-------------|--------------------|-------------|
    |-5--8--10----|-5--8----10--10--3--|-5--8--10----|


    |--------------------|-------------|--------------------|
    |--------------------|-------------|--------------------|
    |--------------------|-------------|--------------------|
    |-5--8----10--10--3--|-5--8--10----|-5--8---10----10-11-|


    |-----------------------|---------------|------------------|
    |-----------------------|---------------|------------------|
    |-----------------------|-----------3-4-|-5---3-4-5---3-4--|
    |-12---10-11-12---10-11-|-3--5--0-------|------------------|


    |---------------|-----------------|---------------|
    |---------------|-----------------|---------------|
    |-----------3-4-|-5---3-4-5---3-4-|-----------3-4-|
    |-3--5--0-------|-----------------|-3--5--0-------|


    |-----------------|-----------------|-----------------|
    |-----------------|-----------------|-----------------|
    |-5---3-4-5---3-4-|-5---3-4-5---3-4-|-5---3-4-5---3-4-|
    |-----------------|-----------------|-----------------|


    |-----------------|-----------------|----------------|
    |-----------------|-----------------|----------------|
    |-5---3-4-5---3-4-|-5---3-4-5---3-4-|------------3-4-|
    |-----------------|-----------------|-3--5--0--------|


    |-----------------|---------------|-----------------|-------------|
    |-----------------|---------------|-----------------|-------------|
    |-5---3-4-5---3-4-|-----------3-4-|-5---3-4-5---3-4-|-------------|
    |-----------------|-3--5--0-------|-----------------|-3--5--0-----|


    |-----------------|--------------|-------------|
    |-----------------|--------------|-------------|
    |-5---3-4-5---3-4-|--------------|-------------|
    |-----------------|-3--5--0---3--|-5--8--10----|


    |-------------------|-------------|--------------------|
    |-------------------|-------------|--------------------|
    |-------------------|-------------|--------------------|
    |-5--8---10--10--3--|-5--8--10----|-5--8----10--10--3--|


    |-------------|--------------------|-------------|
    |-------------|--------------------|-------------|
    |-------------|--------------------|-------------|
    |-5--8--10----|-5--8----10--10--3--|-5--8--10----|


    |--------------------|-------------|-------------------|
    |--------------------|-------------|-------------------|
    |--------------------|-------------|-------------------|
    |-5--8----10--10--3--|-5--8--10----|-5--8---10--10--3--|


    |-------------|--------------------|-------------|
    |-------------|--------------------|-------------|
    |-------------|--------------------|-------------|
    |-5--8--10----|-5--8----10--10--3--|-5--8--10----|


    |--------------------|-------------|---------------|
    |--------------------|-------------|---------------|
    |--------------------|-------------|---------------|
    |-5--8----10--10--3--|-5--8--10----|-5--8---10-----|


    |---------|------------|-------------------|-------------|
    |---------|------------|-------------------|-------------|
    |---------|-------8----|-------------------|-------8-----|
    |---------|-5--8-------|-5--8---10--10--3--|-5--8--------|


    |--------------------|------------|---------------------|
    |--------------------|------------|---------------------|
    |--------------------|-------8----|---------------------|
    |-5--8----10--10--3--|-5--8-------|-5--8----10--10--3---|


    |------------|--------------------|------------|
    |------------|--------------------|------------|
    |-------8----|--------------------|-------8----|
    |-5--8-------|-5--8----10--10--3--|-5--8-------|


    |-------------------|------------|--------------------|
    |-------------------|------------|--------------------|
    |-------------------|-------8----|--------------------|
    |-5--8---10--10--3--|-5--8-------|-5--8----10--10--3--|


    |------------|--------------------|------------|
    |------------|--------------------|------------|
    |-------8----|--------------------|-------8----|
    |-5--8-------|-5--8----10--10--3--|-5--8-------|


    |--------------------|------------|---------------------|
    |--------------------|------------|---------------------|
    |--------------------|-------8----|---------------------|
    |-5--8----10--10--3--|-5--8-------|-5--8----10--10--3---|


    |------------|--------------------|------------|
    |------------|--------------------|------------|
    |-------8----|--------------------|-------8----|
    |-5--8-------|-5--8----10--10--3--|-5--8-------|


    |--------------------|------------|---------------*|
    |--------------------|------------|---------------*|
    |--------------------|-------8----|---------------*|
    |-5--8----10--10--3--|-5--8-------|-5--8---10-----*|


     
  3. ERIC31

    ERIC31

    Jul 1, 2002
    Maricopa, AZ
    Great bassline! I was a big fan of Thompson Twins. Another sweet bassline of theirs is In The Name Of Love. Anyone know what kind of synth got that really cool bass sound they used on the records? Live they had a real bass player. :bassist:
     
  4. Swifty

    Swifty

    Mar 25, 2005
    Finger

    Thanks again for re posting this tab.It's much appreciated

    Swifty :bassist:
     
  5. Finger Blister

    Finger Blister

    Jul 8, 2003
    :bassist: