Psst... Ready to join TalkBass and start posting, make new friends, sell your gear, and more?  Register your free account in 30 seconds.

Van Halen - Atomic Punk bass tabs

Discussion in 'Tablature and Notation [BG]' started by morf, Feb 17, 2006.


  1. morf

    morf Banned

    Feb 17, 2006
    Anyone has these or can figure it out? I've tried but I'm not doing too well
     
  2. DaftCat

    DaftCat

    Jul 26, 2004
    Medicine Hat
    Check PM.
     
  3. morf

    morf Banned

    Feb 17, 2006
    bump
     
  4. morf

    morf Banned

    Feb 17, 2006
    I found someone to tab this for me, I will post the tabs (or he will) in case anyone else is interested. He'll be tabbing from 1:30 where the guitar solo starts and the bass follows.
     
  5. dave64o

    dave64o Talkbass Top 10 all time lowest talent/gear ratio! Gold Supporting Member

    Jun 15, 2000
    Southern NJ
    Good song, and it's on a great album. I was listening to it on my drive into work this morning.

    I never tried playing anything from the first VH album, but I'm going to have to work on a few for kicks.
     
  6. DaftCat

    DaftCat

    Jul 26, 2004
    Medicine Hat
    morf check yer PM.

    DCat,
     
  7. morf

    morf Banned

    Feb 17, 2006
    Here's the tab, thanks again DaftCat!

    atomic punk

    Tab starts at 1:28

    ------------- ---------------------7--------- ------------------- --------------------- ------------------
    ------------- ------------------------------- ------------------- --------------------- ------------------
    ------------- -------------7-----5---5-5---5- ---7-----5-----5--- ---7-----5-5-5-5---5- ---7-----5-13-5---
    -7-7-7--7--7- -7---------0---0-0---------7--- -0---0-0---5-7---7- -0---0-0---------7--- -0---0-0--------7-


    --------------------- --------------------- ----------------------- ---------------------
    --------------------- --------------------- ----------------------- ---------------------
    ---7-----7-----7---5- ---7-----7-----7---5- ---7-----7-----7---5--- ---7-----7-----7-----
    -0---0-0---0-0---7--- -0---0-0---0-0---7--- -0---0-0---0-0---7---7- -0---0-0---0-0---5-6-

    ------------- ------------- ------------- -------------
    ------------- ------------- ------------- -------------
    ------------- ------------- ------------- -------------
    -7-7-7--7--7- -7-7-7--7--7- -7-7-7--7--7- -7-7-7--7--7-

    Tab ends at 1:58

    (took off the slides indications as i couldnt get them to fit in the right places)