1. Please take 30 seconds to register your free account to remove most ads, post topics, make friends, earn reward points at our store, and more!  
     
    TalkBass.com has been uniting the low end since 1998.  Join us! :)

Walk a Thin Line

Discussion in 'Tablature and Notation [BG]' started by fleetwoodmac, Apr 29, 2009.


  1. Walk a Thin Line
    Fleetwood Mac
    from the "Tusk" album, 1979

    I've seen so many things that made me wonder
    A --------------3---3--------
    E --3---3-3---3-------1---1--

    But sometimes it's hard to tell
    A --------------3---3-------
    E --3---3-3---3-------1-----

    I said, "Take your time,"
    A ----------------3---3-------------------3---3---
    E --1-3---3-3---3-------1---1-3---3-3---3-------1-

    But no one was listening
    A ----------------3--------
    E --1-3---3-3---3----------

    I walk a thin line
    A --3-------------------3---3----
    E ----1---1-3---3-3---3-------1--

    They told me that I never would recover
    A ----------------3---3--------
    E --1-3---3-3---3------1---1---

    Still some say they knew me well
    A --------------3---3-------
    E --3---3-3---3-------1-----

    I said, "Stay by my side,"
    A ----------------3---3-------------------3---3---
    E --1-3---3-3---3-------1---1-3---3-3---3-------1-

    But no one said nothing
    A ----------------3--------
    E --1-3---3-3---3----------

    I walk a thin line
    A --3----------------------
    E ----1---1-3---3-3---3----

    (Instrumental)
    A --3---3-3---3---------------5---5-5---5-----------------
    E --------------3---3-3---3-----------------3---3-3---3---

    A --5---5-5---5--------------5---5-5---5-----------------
    E --------------3---3-3---3------------------------------

    A ----------------5---5-5---
    E --3---3-3---3-------------

    And I said, "Please turn the tide,"
    A -5-------------3---3-------------------3---3---
    E ---3---3-3---3-------1---1-3---3-3---3-------1-

    But no one said nothing
    A ----------------3--------
    E --1-3---3-3---3----------

    I walk a thin line
    A --3-------------------3---3-3---3--
    E ----1---1-3---3-3---3--------------

    (Instrumental)

    And I said, "Fate takes time,"
    A -5-------------3---3-------------------3---3---
    E ---3---3-3---3-------1---1-3---3-3---3-------1-

    But no one was listening
    A ----------------3--------
    E --1-3---3-3---3----------

    I walk a thin line
    A --3-------------------3------------
    E ----1---1-3---3-3---3--------------
     

Share This Page