Dismiss Notice

Psst... Ready to join TalkBass and start posting, make new friends, sell your gear, and more?  Register your free account in 30 seconds.

you just have to check this out!!!

Discussion in 'Miscellaneous [BG]' started by bass_player_cd, May 31, 2001.


  1. bass_player_cd

    bass_player_cd terminated.

    Aug 21, 2000
    OK
    whoever can guess what song this tab came from and which bass player played it gets a new 2000/2001 sports car of their choice, and a date with the 1960 playboy playmate.he he he.




    |----------------------------------------------------------
    |----------------------------------------------------------
    |--0--0-0---------5--3---3-3------------5-----------------
    |-----------000-3-----------------000-3-----5---5-5-------


    |----------------------------------------------------------
    |----------------------------------------------------------
    |----5--7---7-7------3--2----0--0-0---------5--3---3-3---
    |----------------000------------------000-3---------------

    |----------------------------------------------------------
    |----------------------------------------------------------
    |--------5-------------------------------------------------
    |-000-3-----5--5-5--3-2-0---------------------------------

    hint: "he is the king of the mother fu**in 4 string bass!!"

    email me at bass_player_cd@yahoo.com when you find out. 1st, 2nd, and 3rd prizes. good luck!!!
     
  2. Phil Smith

    Phil Smith Mr Sumisu 2 U

    May 30, 2000
    Peoples Republic of Brooklyn
    Creator of: iGigBook for Android/iOS
    |----------------------------------------------------------
    |------------------0----------------------0----------------
    |--0--0-0------------3---3-3-----------------0---0-0-----
    |-----------000-3-----------------000-3------------------


    |----------------------------------------------------------
    |----0--3---3-3-----------------------------0--------------
    |--------------------3--2----0--0-0------------3---3-3---
    |----------------000------------------000-3---------------

    |----------------------------------------------------------
    |--------0-------------------------------------------------
    |------------0--0-0------------------------------------------
    |-000-3-------------3-2-0---------------------------------

    Is it the same person that played this?
     
  3. yawnsie

    yawnsie

    Apr 11, 2000
    London
    :confused:

    Bassvirtuoso13? John Turner? Me?
     
  4. john turner

    john turner You don't want to do that. Trust me. Staff Member Administrator

    Mar 14, 2000
    atlanta ga
    wow, talk about the 3 stooges :D.
     
  5. phil smith: that´s just great! :D

    anyway, that´s exactly why people are talking against tab! you couldn´t by ANY chanche play that line like it´s supposed to be played (without listening to the song). give me sheet music for the same song, and I´ll find out what it is.... ;)
     
  6. bass_player_cd

    bass_player_cd terminated.

    Aug 21, 2000
    OK
    well, The_bass, maybe if you studied up on your music, and listen to some good old heavy metal bands you would be able to recognize the riff. It's the 2nd album they made and heres a part they sing in the song:

    "simple nothing more for me"
    "need the end to set me free"

    then the riff comes in.

    happy!!
     
  7. bass_player_cd

    bass_player_cd terminated.

    Aug 21, 2000
    OK
    Yes phil that is the same person.