Psst... Ready to join TalkBass and start posting, make new friends, sell your gear, and more?  Register your free account in 30 seconds.

Champagne Supernova

Discussion in 'Tablature and Notation [BG]' started by seanm, Jan 15, 2005.


  1. seanm

    seanm I'd kill for a Nobel Peace Prize! Supporting Member

    Feb 19, 2004
    Ottawa, Canada
    Ok, I need to learn this song for the band. I only have the mp3 and the bass is pretty buried :scowl:

    I am pretty sure I can hear a low A at about 0:57 at the find in "Someday you will find me". Then A to G (A at the, G at landslide) in "Caught beneath the landslide".

    Any thoughts on this? Any other hints at the song would help.
     
  2. Finger Blister

    Finger Blister

    Jul 8, 2003
    This might get you started.


    Champagne Supernova - Oasis

    |---------|---------|---------|------------|
    |---------|---------|---------|------------|
    |---------|---------|---------|------------|
    |---------|---------|---------|-------0----|


    |----------|----------------|----------|------------------|
    |----------|----------------|----------|------------------|
    |-0--------|-(0)----(0)--0--|----------|------------------|
    |----------|----------------|-3--------|-(3)----(3)---3---|


    |----------|----------0-0-|----------|-------------------|
    |----------|--------------|----------|-------------------|
    |----------|--------------|----------|-------------------|
    |-2--------|-(2)----------|-0--------|-(0)----(0)--0--2--|


    |----------|--------------|----------|-----------------|
    |----------|--------------|----------|-----------------|
    |-0--------|-(0)----------|----------|-----------------|
    |----------|----------0---|-3--------|-(3)----(3)--3---|


    |----------|--------------0-0--|----------|------------------------|
    |----------|-------------------|----------|------------------------|
    |----------|-------------------|----------|------------------------|
    |-2--------|-(2)----(2)--------|-0--------|-(0)----(0)--0-(0)--2---|


    |---------------|-----------------|--------------|---------------|
    |---------------|-----------------|--------------|---------------|
    |-0----(0)----0-|-(0)---0--(0)----|--------------|---------------|
    |---------------|-----------------|-3----(3)---3-|---3--(3)------|


    |----------------|------------0-0-|---------------|-----------------|
    |----------------|----------------|---------------|-----------------|
    |----------------|----------------|---------------|-----------------|
    |-2----(2)----2--|---2--(2)-------|-0----(0)---0--|---0--(0)---0-2--|


    |---------------|----------|---------------|-------------|
    |---------------|----------|---------------|-------------|
    |-0----(0)----0-|---0------|---------------|-------------|
    |---------------|----------|-3----(3)---3--|---3--(3)----|


    |---------------|------------0-0-|----------------|-------------|
    |---------------|----------------|----------------|-------------|
    |---------------|----------------|----------------|-------------|
    |-2----(2)---2--|---2--(2)-------|-0----(0)----0--|---0--(0)----|


    |---------------|-------------|---------------|----------|
    |---------------|-------------|---------------|----------|
    |-0----(0)---0--|---0--(0)----|---------------|----------|
    |---------------|-------------|-3----(3)---3--|---3------|


    |--------------|------------0-0-|---------------|
    |--------------|----------------|---------------|
    |--------------|----------------|---------------|
    |-2----(2)---2-|---2--(2)-------|-0--0--0---0---|


    |----------------|-----------|---------------|-----------|
    |----------------|-----------|---------------|-----------|
    |----------------|-0-------0-|-(0)--0---0----|-----------|
    |-0---0---0---0--|-----------|---------------|-3-------3-|


    |-------------|--------------|---------0-0-|---------------|
    |-------------|--------------|-------------|---------------|
    |-------------|--------------|-------------|---------------|
    |---3-----3---|-2----(2)---2-|---2---------|-0----(0)---0--|


    |-----------------|--------------|------------------|---------------|
    |-----------------|--------------|------------------|---------------|
    |-------------0---|-0----(0)---0-|-(0)--0--(0)--0---|---------------|
    |-(0)--0--0-2---2-|--------------|------------------|-3----(3)---3--|


    |--------------|-----------|-----------0-0-|------------|
    |--------------|-----------|---------------|------------|
    |--------------|-----------|---------------|------------|
    |-(3)--3---3---|-2-------2-|-(2)--2--------|-0----0---0-|


    |-------------------|--------------|-----------------|
    |-------------------|--------------|-----------------|
    |-------------------|--------------|-----------------|
    |-(0)--0--(0)---0---|-3--3--3--3---|-3---3---3---3---|


    |-----------------|-----------------|----------------|
    |-----------------|-----------------|----------------|
    |-----------------|-----------------|-0--0---0---0---|
    |-3---3---3---3---|-3---3---3---3---|----------------|


    |-----------------|-----------------|------------------|
    |-----------------|-----------------|------------------|
    |-0---0---0---0---|-0---0---0---0---|-0---0---0---0----|
    |-----------------|-----------------|------------------|


    |----------------|-----------------|-0--0---0---0----|
    |----------------|-----------------|-----------------|
    |----------------|-----------------|-----------------|
    |-3--3---3---3---|-3---3---3---3---|-----------------|


    |-0---0---0---0---|----------------|-----------------|
    |-----------------|----------------|-----------------|
    |-----------------|----------------|-----------------|
    |-----------------|-0--0---0---0---|-0---0---0---0---|


    |-----------------|-----------------|---------------|
    |-----------------|-----------------|---------------|
    |-----------------|-----------------|-0----(0)---0--|
    |-0---0---0---0---|-0---0---0---0---|---------------|


    |---------------------|--------------|-------------|----------------|
    |---------------------|--------------|-------------|----------------|
    |-(0)---0--(0)--(0)---|--------------|-------------|----------------|
    |---------------------|-3----(3)---3-|---3--(3)----|-2----(2)----2--|


    |---------------0-0-|--------------|------------------|------------|
    |-------------------|--------------|------------------|------------|
    |-------------------|--------------|------------------|-0-------0--|
    |-(2)--2--(2)-------|-0----(0)---0-|-(0)--0--(0)--0-2-|------------|


    |--------------------|--------------|----------|---------------|
    |--------------------|--------------|----------|---------------|
    |-(0)--0--(0)--(0)---|--------------|----------|---------------|
    |--------------------|-3----(3)---3-|---3------|-2----(2)---2--|


    |--------0-0-|--------------|------------|--------------|
    |------------|--------------|------------|--------------|
    |------------|--------------|------------|-0----(0)---0-|
    |---2--------|-0----(0)---0-|---0----0-2-|--------------|


    |----------|--------------|------------|-----------------|
    |----------|--------------|------------|-----------------|
    |---0------|--------------|------------|-----------------|
    |----------|-3----(3)---3-|---3----3---|-2----(2)----2---|


    |---------0-0-|--------------|------------|------------|
    |-------------|--------------|------------|------------|
    |-------------|--------------|------------|-0-------0--|
    |---2---------|-0----(0)---0-|---0----0-2-|------------|


    |---------------|-----------|------------|--------------|
    |---------------|-----------|------------|--------------|
    |-(0)---0---0---|-----------|------------|--------------|
    |---------------|-3-------3-|---3---3----|-2----(2)---2-|


    |---------0-0-|--------------|---------------|------------|
    |-------------|--------------|---------------|------------|
    |-------------|--------------|-----------0---|-0----0---0-|
    |---2---------|-0---0--0--0--|-0--0--0-2---2-|------------|


    |-----------|------------|------------------|-------------|
    |-----------|------------|------------------|-------------|
    |---0----0--|------------|------------------|-------------|
    |-----------|-3----3---3-|-(3)--3--(3)--3---|-2----2---2--|


    |----------------0-0-|----------------|-----------------|-------------|
    |--------------------|----------------|-----------------|-------------|
    |--------------------|----------------|-------------0---|-0----0---0--|
    |-(2)--2--(2)--------|-0----0--(0)--0-|-(0)--0--0-2---2-|-------------|


    |-----------------|------------|------------------|------------|
    |-----------------|------------|------------------|------------|
    |-(0)--0--(0)-----|------------|------------------|------------|
    |-----------------|-3----3---3-|-(3)--3--(3)--3---|-2----2---2-|


    |-----------0-0-|------------|------------------|--------------|
    |---------------|------------|------------------|--------------|
    |---------------|------------|------------------|--------------|
    |-(2)--2--------|-0----0---0-|-(0)--0--(0)---0--|-3--3--3--3---|


    |-----------------|-----------------|------------------|
    |-----------------|-----------------|------------------|
    |-----------------|-----------------|------------------|
    |-3---3---3---3---|-3---3---3---3---|-3---3---3---3----|


    |----------------|-----------------|-----------------|
    |----------------|-----------------|-----------------|
    |-0--0---0---0---|-0---0---0---0---|-0---0---0---0---|
    |----------------|-----------------|-----------------|


    |-----------------|----------------|-----------------|
    |-----------------|----------------|-----------------|
    |-0---0---0---0---|----------------|-----------------|
    |-----------------|-3--3---3---3---|-3---3---3---3---|


    |-0--0---0---0---|-0---0---0---0---|-----------------|
    |----------------|-----------------|-----------------|
    |----------------|-----------------|-----------------|
    |----------------|-----------------|-0--0---0---0----|


    |-----------------|-----------------|------------------|
    |-----------------|-----------------|------------------|
    |-----------------|-----------------|------------------|
    |-0---0---0---0---|-0---0---0---0---|-0---0---0---0----|


    |----------------|----------------|----------------|
    |----------------|----------------|----------------|
    |-0--0---0---0---|-0--0---0---0---|----------------|
    |----------------|----------------|-3--3---3---3---|


    |-----------------|----------------|-----------------|
    |-----------------|----------------|-----------------|
    |-----------------|----------------|-----------------|
    |-3---3---3---3---|-2--2---2---2---|-2---2---2---2---|


    |----------------|----------------|----------------|
    |----------------|----------------|----------------|
    |----------------|----------------|-0--0---0---0---|
    |-1--1---1---1---|-3--3---3---3---|----------------|


    |-----------------|----------------|-----------------|
    |-----------------|----------------|-----------------|
    |-0---0---0---0---|----------------|-----------------|
    |-----------------|-3--3---3---3---|-3---3---3---3---|


    |----------------|-----------------|-----------------|
    |----------------|-----------------|-----------------|
    |----------------|-----------------|-----------------|
    |-2--2---2---2---|-2---2---2---2---|-1--1---1---1----|


    |----------------|----------------|------------------|
    |----------------|----------------|------------------|
    |----------------|-0--0---0---0---|-0---0---0---0----|
    |-3--3---3---3---|----------------|------------------|


    |----------------|-----------------|---------------|
    |----------------|-----------------|---------------|
    |----------------|-----------------|---------------|
    |-3--3---3---3---|-3---3---3---3---|-2--2---2--2---|


    |-----------------|----------------|-----------------|
    |-----------------|----------------|-----------------|
    |-----------------|----------------|-----------------|
    |-2---2---2---2---|-1--1---1---1---|-3--3---3---3----|


    |----------------|-----------------|-----------------|
    |----------------|-----------------|-----------------|
    |-0--0---0---0---|-0---0---0---0---|-----------------|
    |----------------|-----------------|-3--3---3---3----|


    |-----------------|---------------|------------------|
    |-----------------|---------------|------------------|
    |-----------------|---------------|------------------|
    |-3---3---3---3---|-2--2---2--2---|-2---2---2---2----|


    |---------------|----------------|-----------------|
    |---------------|----------------|-----------------|
    |---------------|----------------|-0--0---0---0----|
    |-1--1---1---1--|-3--3---3---3---|-----------------|


    |-----------------|----------------|-----------------|
    |-----------------|----------------|-----------------|
    |-0---0---0---0---|----------------|-----------------|
    |-----------------|-3--3---3---3---|-3---3---3---3---|


    |--------------|-----------------|--------------|
    |--------------|-----------------|--------------|
    |--------------|-----------------|--------------|
    |-2--2--2--2---|-2---2---2---2---|-1--1---1--1--|


    |---------------|---------------|----------------|
    |---------------|---------------|----------------|
    |---------------|---------------|----------------|
    |-3--3---3--3---|-1--1---1---1--|-3--3---3---3---|


    |---------------|----------------|----------------|
    |---------------|----------------|----------------|
    |---------------|----------------|-0----0--(0)--0-|
    |-1--1---1---1--|-3--3---3---3---|----------------|


    |------------|------------------|-------------|
    |------------|------------------|-------------|
    |---0----0---|------------------|-------------|
    |------------|-3--(3)---3----3--|---3-----3---|


    |------------------|---------0-0-|--------------|
    |------------------|-------------|--------------|
    |------------------|-------------|--------------|
    |-2--(2)---2----2--|---2---------|-0----0---0---|


    |--------------|------------|-------------|
    |--------------|------------|-------------|
    |--------------|-0----0---0-|---0-----0---|
    |---0-----0-2--|------------|-------------|


    |------------------|-------------|-----------------|
    |------------------|-------------|-----------------|
    |------------------|-------------|-----------------|
    |-3--(3)---3----3--|---3-----3---|-2--(2)---2---2--|


    |---------0-0-|------------|---------------|--------------|
    |-------------|------------|---------------|--------------|
    |-------------|------------|---------------|-0----0---0---|
    |---2---------|-0----0---0-|---0-----0--2--|--------------|


    |------------|----------------|-------------|
    |------------|----------------|-------------|
    |---0----0---|----------------|-------------|
    |------------|-3--(3)---3---3-|---3-----3---|


    |------------------|---------0-0-|-----------------|
    |------------------|-------------|-----------------|
    |------------------|-------------|-----------------|
    |-2--(2)---2----2--|---2---------|-0--(0)---0---0--|


    |---------------|----------------|-------------|
    |---------------|----------------|-------------|
    |---------------|-0--(0)---0---0-|---0----0----|
    |---0-----0--2--|----------------|-------------|


    |------------------|-------------|-------------------|
    |------------------|-------------|-------------------|
    |------------------|-------------|-------------------|
    |-3--(3)---3----3--|---3-----3---|-2--(2)---2----2---|


    |---------0-0-|----------------|--------------|-----------------|
    |-------------|----------------|--------------|-----------------|
    |-------------|----------------|--------------|-0--(0)---0---0--|
    |---2---------|-0--(0)---0---0-|---0----0--2--|-----------------|


    |------------|-------------|-------------|
    |------------|-------------|-------------|
    |---0----0---|-------------|-------------|
    |------------|-3----3---3--|---3-----3---|


    |-----------------|---------0-0-|----------------|--------------|
    |-----------------|-------------|----------------|--------------|
    |-----------------|-------------|----------------|--------------|
    |-2--(2)---2---2--|---2---------|-0--(0)---0---0-|---0----0-2---|


    |----------------|-----------|----------------|-------------|
    |----------------|-----------|----------------|-------------|
    |-0--(0)---0---0-|---0----0--|----------------|-------------|
    |----------------|-----------|-3--(3)---3---3-|---3----3----|



    |------------|------------|---------|-----|
    |------------|------------|---------|-----|
    |------------|------------|---------|-----|
    |-2----2---2-|---2----2---|---------|-----|


     
  3. seanm

    seanm I'd kill for a Nobel Peace Prize! Supporting Member

    Feb 19, 2004
    Ottawa, Canada
    Thanks! But where does the initial E come in?
     
  4. Finger Blister

    Finger Blister

    Jul 8, 2003
    Bar 36.

    Here's another TAB
     
  5. seanm

    seanm I'd kill for a Nobel Peace Prize! Supporting Member

    Feb 19, 2004
    Ottawa, Canada
    Thanks! I should be able to nail it now.