1. Please take 30 seconds to register your free account to remove most ads, post topics, make friends, earn reward points at our store, and more!  

Jethro Tull Bouree Bass Solo - just tabbed it out

Discussion in 'Tablature and Notation [BG]' started by ollie1988, Sep 16, 2008.


  1. ollie1988

    ollie1988

    Sep 16, 2008
    i just learned this and felt like tabbing to help out fellow bassists having trouble with it. this is the first time i've ever tabbed anything out so it may look kinda messy

    Bouree Bass Solo


    Fast Part

    --7-----------------------------------------
    --------------7--8--7-----------5--7-------
    -----5--7--8-----------8--7--8--------5--5-
    --------------------------------------------

    -----------7-----9--------------12---------------------------
    --------7-----7-----10------10-----11-----11--11h12--11h12-
    --7--8------------------10-------------10--------------------
    --------------------------------------------------------------

    --6---------------------------------------
    -------5--6--7-----------------5--7-------
    ---8-----------4--5--8--7--8--------5--5-
    ------------------------------------------

    ---------------------------------------------
    --------7--10-----10-8-----------10-----10-
    --7--8---------8--------10----8------8-----
    ---------------------------8----------------

    Strum Part (the rhythm is difficult to tab so use your imagination a bit)

    --121212--14--10-10-10-12-10-
    --101010--12--8--8--8--10-8--
    -------------------------------
    -------------------------------

    --141414--12----------------------
    --121212--10---10-10-10--12--10-
    -----------------8--8--8--10---8--
    -----------------------------------

    ----------------------
    --7-7--7-7-7--7--7---
    --5-5--5-5-5--5--5---
    ----------------------

    --121212--14--10-10-10-12-10-
    --101010--12--8--8--8--10-8--
    -------------------------------
    -------------------------------

    --141414--12----------------------
    --121212--10---10-10-10--12--10-
    -----------------8--8--8--10---8--
    -----------------------------------

    ---------------------
    --7-7--7-7-7-101010-
    --5-5--5-5-5--8-8-8--
    ---------------------

    ---------------------
    --7-7--7-7-7-101010-
    --5-5--5-5-5--8-8-8--
    ---------------------

    Ending

    --12--1212--10--1010---9---9-9---9h10----------
    --12--1212--12--1212--10--1010--10-----10---7-
    ------------------------------------------10---5-
    --------------------------------------------------

    have fun! :)
     
  2. DaneB

    DaneB

    May 25, 2008
    Western Australia
    If you want to display more rhythmic information, try the program Powertab, which is free. You can write in tab, and give it basically all types of note lenghts and types and accents and everything, with standard notation as well. And it actually plays the music too, so you can hear if it sounds right.

    Can be really difficult to get note lengths and rests and stuff right though. Tabbing little grooves and stuff can often take forever...
     

Share This Page

  1. This site uses cookies to help personalise content, tailor your experience and to keep you logged in if you register.
    By continuing to use this site, you are consenting to our use of cookies.