1. Please take 30 seconds to register your free account to remove most ads, post topics, make friends, earn reward points at our store, and more!  

need a tab

Discussion in 'Tablature and Notation [BG]' started by REAPER52, Sep 21, 2008.


  1. REAPER52

    REAPER52

    Aug 17, 2008
    FL-Central
    looking for the tabs for a Eric Burdon song--- Its my life
     
  2. poppamies

    poppamies

    Dec 15, 2002
    Here you are. I love this song...


    It's My Life.btab
    The Animals
    TablEdited by Poppamies

    Tempo 120
    |--------------------------------|--------------------------------|
    |----------------------------4---|6-----------4---6-----------4---|
    |--------------------------------|--------------------------------|
    |--------------------------------|--------------------------------|


    |--------------------------------|--------------------------------|
    |6---4-----------------------4---|6-----------4---6-----------4---|
    |--------6---4---6---------------|--------------------------------|
    |--------------------------------|--------------------------------|


    |--------------------------------|--------------------------------|
    |6---4---------------------------|----------------6-------6---6---|
    |--------6---4---6-------6-------|6-------6---6-------------------|
    |--------------------------------|--------------------------------|


    |--------------------------------|--------------------------------|
    |----------------6-----------6---|----------------6-------6---6---|
    |6-----------6-------------------|6-----------6-------------------|
    |--------------------------------|--------------------------------|


    |--------------------------------|--------------------------------|
    |----------------6-----------6---|----------------6-----------6---|
    |6-----------6-------------------|6-----------6-------------------|
    |--------------------------------|--------------------------------|


    |--------------------------------|--------------------------------|
    |----------------6-----------6---|----------------6-----------6---|
    |6-----------6-------------------|6-----------6-------------------|
    |--------------------------------|--------------------------------|


    |--------------------------------|--------------------------------|
    |----------------6---------------|--------------------------------|
    |6-----------6---------------6---|6-----------6-----------4-------|
    |--------------------------------|--------------------------------|


    |--------------------------------|--------------------------------|
    |--------------------------------|--------------------------------|
    |------------------------4-------|6-----------6---6-------4-------|
    |7-----------7---7---------------|--------------------------------|


    |--------------------------------|--------------------------------|
    |--------------------------------|--------------------------------|
    |--------------------------------|4-----------4---4-------4-------|
    |7---7---7---7---7-------7-------|--------------------------------|


    |--------------------------------|------------5---6-------5-------|
    |--------------------------------|6-------6-----------------------|
    |6-----------6---6-------6-------|--------------------------------|
    |--------------------------------|--------------------------------|


    |------------3---4-------3-------|------------5---6-------5-------|
    |4-------4-----------------------|6-------6-----------------------|
    |--------------------------------|--------------------------------|
    |--------------------------------|--------------------------------|


    |------------3---4-------3-------|------------5---6-------5-------|
    |4-------4-----------------------|6-------------------------------|
    |--------------------------------|--------------------------------|
    |--------------------------------|--------------------------------|


    |------------3---4-------3-------|------------3---4-------3-------|
    |4-------------------------------|4-------------------------------|
    |--------------------------------|--------------------------------|
    |--------------------------------|--------------------------------|


    |------------3---4-------3-------|------------5---6-------5-------|
    |4-------------------------------|6-------------------------------|
    |--------------------------------|--------------------------------|
    |--------------------------------|--------------------------------|


    |------------3---4-------3-------|------------3---4-------3-------|
    |4-------------------------------|4-------------------------------|
    |--------------------------------|--------------------------------|
    |--------------------------------|--------------------------------|


    |------------5---6-------5-------|------------5---6-------5-------|
    |6-------------------------------|6-------------------------------|
    |--------------------------------|--------------------------------|
    |--------------------------------|--------------------------------|


    |------------5---6-------5-------|--------------------------------|
    |6-------------------------------|--------------------------------|
    |--------------------------------|4-------4-------6-------6---6---|
    |--------------------------------|--------------------------------|


    |--------------------------------|--------------------------------|
    |4-------4---6-------6---6---6---|--------------------------------|
    |--------------------------------|4---4---4---6-------6---6-------|
    |--------------------------------|--------------------------------|


    |--------------------------------|--------------------------------|
    |4---4---4---6---6---6---6---6---|4---4---4---6-----------6---6---|
    |--------------------------------|--------------------------------|
    |--------------------------------|--------------------------------|


    |--------------------------------|--------------------------------|
    |4---4---4---6-----------6-------|4---4---4-------4---4---4-------|
    |--------------------------------|--------------------------------|
    |--------------------------------|--------------------------------|


    |--------------------------------|--------------------------------|
    |6---------------------------4---|6---------------------------4---|
    |--------------------------------|--------------------------------|
    |--------------------------------|--------------------------------|


    |--------------------------------|--------------------------------|
    |6---------------------------4---|6-----------4---6-----------4---|
    |--------------------------------|--------------------------------|
    |--------------------------------|--------------------------------|


    Created with TablEdit http://www.tabledit.com/
     
  3. REAPER52

    REAPER52

    Aug 17, 2008
    FL-Central
    Thanks - i love it too. surprised more dont know of his contribution to music
     

Share This Page

  1. This site uses cookies to help personalise content, tailor your experience and to keep you logged in if you register.
    By continuing to use this site, you are consenting to our use of cookies.