1. Please take 30 seconds to register your free account to remove most ads, post topics, make friends, earn reward points at our store, and more!  

Rolling Stones - Miss You

Discussion in 'Tablature and Notation [BG]' started by bspot, May 24, 2012.


  1. bspot

    bspot

    Sep 9, 2008
    Charlotte NC
    There are a couple old threads on here about the song 'Miss You', but I cannot find any help. Looking for a tab or any help on this song....LOTS going on with the bass on this...
     
  2. Ibanez Bassist

    Ibanez Bassist

    Jan 30, 2010
    US of A
    This was one of the only tabs I found, Not sure if its 100% ( most aren't )
    If you cant read it like this then send me an E-Mail address and I will send it out again...
    You might be able to copy and paste to straighten it out..

    G|——————|———————————————————————|—————————————————————————|D|——————|———————7————5————5h7———|—————7——5————5—————5—7———|A|——————|———————————————————————|————————————————7————————|E|——————|——5————————————————————|——5——————————————————————| G|————————7————5——————————|—————7——5—————————5h7———|——————————————————————————|D|——————————————————7—————|—————————————7——————————|————————7————5——————5—7———|A|——5——5———————————————5——|——5—————————————————————|————————————————5—5———————|E|————————————————————————|————————————————————————|——5——5————————————————————| G|—————————————————————————|—————7——5—————————5h7———|—————7——5————4—————————|D|—————7——5—————5————5h7———|—————————————7——————————|————————————————————7——|A|———————————7—————————————|——5—————————————————————|——5————————————————————|E|——5——————————————————————|————————————————————————|———————————————————————| G|———————————————12—13—14/———|———————————————12—13—14/———|D|—————7————5————————————————|——0——7————5————————————————|A|———————————————————————————|———————————————————————————|E|——5————————————————————————|———————————————————————————| G|—————7——5—————————5——7——|—————7——5————4—————————|————————————————————————|D|—————————————7——————————|——————————————————7————|————————7————5————5h—7——|A|——5—————————————————————|——5————————————————————|————————————————————————|E|————————————————————————|———————————————————————|——5——5——————————————————| G|————————————————————————|—————7————5————4———————|—————7————5———————5——7——|D|—————7————5———————5h7———|————————————————————7——|———————————————7————————|A|———————————————7————————|——5————————————————————|——5—————————————————————|E|——5—————————————————————|———————————————————————|————————————————————————| G|————————————————————————|———————————————12—13—14/———|—————7————5————4———————|D|—————7————5———————5h7———|—————7————5————————————————|————————————————————7——|A|———————————————7————————|———————————————————————————|——5————————————————————|E|——5—————————————————————|——5————————————————————————|———————————————————————| G|—————7————5————4———————|———————————————————————|————————————————————————|D|————————————————————7——|—————————————————5——7——|—————————————————5—6—7——|A|——5————————————————————|———————5————5——————————|———————5————7———————————|E|———————————————————————|——5————————————————————|——5—————————————————————| G|—————7————5————4———————|—————7—————9—————10—————7——|————————————————————————|D|————————————————————7——|———————————————————————————|————————7————5————5h7———|A|——5————————————————————|——5—————7—————8——————5—————|—————5——————————————————|E|———————————————————————|———————————————————————————|——5—————————————————————| G|———————————————12—13—14/————|—————7————5————4———————|—————7—————5—————4————————|D|—————7————5——————————————0——|————————————————————7——|———————————————————————7——|A|————————————————————————————|——5————————————————————|——5—————5—————5—————5—————|E|——5—————————————————————————|———————————————————————|——————————————————————————| G|—————————————————————————|——————————————————————————|—————7————5————4———————|D|—————7——5——————————5h7———|—————7——5—————5—————5h7———|————————————————————7——|A|———————————5——7——————————|———————————5—————7————————|——5————————————————————|E|——5——————————————————————|——5———————————————————————|———————————————————————| G|—————7————5—————4————————|————————————————————————|———————————————————————————|D|——————————————————————7——|—————7————9————10/———7——|—————7—————9—————10/———————|A|——5——————————5—————5—————|————————————————————————|———————————————————————————|E|—————————————————————————|——5—————————————————————|——5—————7—————8——————5——8——| G|—————7——5————4——————————|—————7—————9—————10——————12/—|D|——————————————————7—————|—————————————————————————————|A|——5——————————————————5——|——5—————7—————8——————10——————|E|————————————————————————|—————————————————————————————| G|—————————————————————————|—————————————————————————|—————7——5————4———————————|D|—————7——5————5—————5——7——|—————7——5————5—————5——7——|————————————————0——7—————|A|—————————————————7———————|—————————————————7———————|——5———————————————————5——|E|——5——————————————————————|——5——————————————————————|—————————————————————————| G|—————7——5————4———————————|————————————————————————|D|———————————————————7—————|—————7————5———————5h7———|A|——5—————————————5—————5——|———————————————7————————|E|—————————————————————————|——5—————————————————————| G|—————————————————12—13—14/———|—————7————5————4———————|D|—————7——5———x—7——————————————|————————————————————7——|A|—————————————————————————————|——5————————————————————|E|——5——————————————————————————|———————————————————————| G|—————7—————9—————x————————|—————————————————————————|—————————————————————————|D|———————————————————————7——|—————7————5——7———————————|—————7————5——7———————————|A|——5—————7—————x—————5—————|——————————————————————7——|————————————————7/————7——|E|——————————————————————————|——5—————————————x——5—————|——5————————————————5—————| G|—————7—————9—————10—————9——|—————7—————9—————10——————12——|D|———————————————————————————|—————————————————————————————|A|——5—————7—————8——————7—————|——5—————7—————8——————10——————|E|———————————————————————————|—————————————————————————————| G|——————14————14—14———12—13—14—————|—————14—————14—————12—12—12/———|D|—————————————————————————————————|———————————————————————————————|A|——12——————————————————————————0——|——0——————0——————0——————————————|E|—————————————————————————————————|———————————————————————————————| G|—————7—————9—————10—————9——|—————7—————9—————10/———————|D|———————————————————————————|———————————————————————————|A|——5—————7—————8——————7—————|——5—————7—————x——————5—————|E|———————————————————————————|————————————————————————5——| G|———————10————10————————————|—————9————9————9—————————|—————7————7————7—————————|D|———————————————————8—9—10——|——————————————————7—8—9——|——————————————————5—6—7——|A|——8————————————————————————|——7——————————————————————|——5——————————————————————|E|———————————————————————————|—————————————————————————|—————————————————————————| G|—————————————————————————|—————10————10————10——————————|D|—————————————————————————|—————————————————————8—9—10——|A|——5————5———————————5—————|——8——————————————————————————|E|——————————5——5——7—————5——|—————————————————————————————| G|—————9————9————9—————————|—————7————7————7—————————|———————————————————————|D|——————————————————7—8—9——|——————————————————5—6—7——|———————————————————————|A|——7——————————————————————|——5——————————————————————|——7——7——7——————7——7————|E|—————————————————————————|—————————————————————————|———————————————————————| G|———————————————————————————|———————————————————————————|D|—————7—————9—————10—————9——|—————7—————9—————10/———————|A|———————————————————————————|———————————————————————————|E|——5—————7—————8——————7—————|——5—————7—————8——————5——8——| G|—————7—————9—————10—————9——|—————7——————————————————————|D|———————————————————————————|———————————10—————9—————10——|A|——5—————7—————8——————7—————|——5—————————————————————————|E|———————————————————————————|————————8——————7—————8——————| G|—————————————————————————|—————————————————12—13—14/———|D|—————7——5————5—————5h7———|—————7——5—————5——————————————|A|————————————————7————————|———————————7—————————————————|E|——5——————————————————————|——5——————————————————————————| G|—————7—————9—————10—————9——|—————7—————9—————10——————12/—|D|———————————————————————————|—————————————————————————————|A|——5—————7—————8——————7—————|——5—————7—————8——————10——————|E|———————————————————————————|—————————————————————————————| G|————————————————————————————|——————————————————————————|—————7————5————4———————|D|—————7——5—————5——————5—7————|—————7——5————————5——5h7———|————————————————————7——|A|———————————7—————5—5————————|———————————5——7———————————|——5————————————————————|E|——5———————————————————————5—|——5———————————————————————|———————————————————————| G|—————7—————5—————4————————|————————————————————————|———————————————x—x—14/———|D|———————————————————————7——|—————7————5———————5h7———|—————7————5——————————————|A|——5—————5—————5—————5—————|———————————————7————————|—————————————————————————|E|——————————————————————————|——5—————————————————————|——5——————————————————————| G|—————7————9————10————9——|————7————5————4———————|—————————————————————————|D|————————————————————————|———————————————————7——|—————7————5—————5——5h7———|A|——5—————————————————————|——————————————————————|——5——————————7———————————|E|————————————————————————|——————————————————————|—————————————————————————| G|————————————————————————|—————7—————9—————10—————9——|D|—————7————5————5——5h7———|———————————————————————————|A|——5—————————————————————|——5—————7—————8——————7—————|E|————————————————————————|———————————————————————————| G|—————7——————————————————————|———————————————————————————|D|———————————10—————9—————10——|—————7—————9—————10—————9——|A|——5—————————————————————————|——5————————————————————————|E|————————8——————7—————8——————|————————7—————8——————7—————| G|———————————————————————————|—————7—————9—————10—————9——|D|—————7—————9—————10/———————|———————————————————————————|A|———————————————————————————|——5—————7—————8——————7—————|E|——5—————7—————8——————5——8——|———————————————————————————| G|—————7——————————————————————|—————————————————————————————|D|———————————10—————9—————10——|—————7—————9—————10——————12——|A|——5—————————————————————————|—————————————————————————————|E|————————8——————7—————8——————|——5—————7—————8——————10——————| G|———————————————————————————|—————7—————9—————10—————9——|D|—————7—————9—————10—————7——|———————————————————————————|A|—————————————————————5—————|——5—————7—————8——————7—————|E|——5—————7—————8————————————|———————————————————————————| G|—————7—————9—————10——————12—14—|——————————————————————————|D|———————————————————————————————|————5——7————5——————5—7————|A|——5—————7—————8——————10————————|———————————————7—7————————|E|———————————————————————————————|———————————————————————5——| G|—————————————————12—13—14/———|—————7—————9—————10——————12/—|D|—————7——5—————7——————————————|—————————————————————————————|A|———————————7—————————————————|——5—————7—————8——————10——————|E|——5——————————————————————————|—————————————————————————————| G|—————7—————9—————10——————12—13—|——14/————————————————————|D|———————————————————————————————|————————7————————————————|A|——5—————7—————8——————10————————|—————————————————————————|E|———————————————————————————————|———————————5——8——5——8————| G|————————————————————————————|—————7——————————————————5—6—|D|———————————9—————10/————————|———————————10—————9—————————|A|————————————————————————3—4—|——5—————————————————————————|E|——5———5—7—————8——————5——————|————————8——————7—————5——————| G|——7——7—————9—————10/——————|—————————————————————————|D|——————————————————————————|—————7——5————5—————5h7———|A|————————7—————8——————5————|————————————————7————————|E|——————————————————————————|——5——————————————————————| G|———————————————————————————|—————7——5—————5————5h7———|D|—————7——5—————5——————5h7———|———————————7—————————————|A|———————————7—————7—7———————|——5——————————————————————|E|——5————————————————————————|—————————————————————————| G|—————7—————5—————4————————|———————————————————————————|D|———————————————————————7——|—————7——5—————5——————5h7———|A|——5—————5—————5—————5—————|———————————7—————7—7———————|E|——————————————————————————|——5————————————————————————| G|———————————————————————————|—————7—————9—————10—————9——|D|—————7——5—————5——————5h7———|———————————————————————————|A|———————————7—————7—7———————|——5—————7—————8——————7—————|E|——5————————————————————————|———————————————————————————| G|—————7——————————————————————|———————————————————————————|D|———————————10—————9—————10——|—————7—————9———————————12/—|A|——5—————————————————————————|———————————————————————————|E|————————8——————7—————8——————|——5—————7—————8————10——————| G|———————————————0——12—13—14/————|—————7————5————4———————|D|—————7——5——5—7——————————————0——|————————————————————7——|A|———————————————————————————————|——5————————————————————|E|——5————————————————————————————|———————————————————————| G|—————7—————5—————8————————|———————————————————————————|D|———————————————————————7——|—————7—————9—————10—————9——|A|——5—————x—————x—————5—————|———————————————————————————|E|——————————————————————————|——5—————7—————8——————7—————| G|———————————————————————————|—————7—————9—————10——————12/—|D|—————7—————9—————10——19/———|—————————————————————————————|A|———————————————————————————|——5—————7—————8——————10——————|E|——5—————7—————8————————————|—————————————————————————————| G|—————7—————9—————10——————12/—|——————————————————12—12—14————|D|—————————————————————————————|——————————————————————————————|A|——5—————7—————8——————10——————|——12————12————12——————————————|E|—————————————————————————————|——————————————————————————————| G|———————————————————12—12—14/———|—————7—————9—————10—————9——|D|————————————————7——————————————|———————————————————————————|A|——12——0——12——0—————————————————|——5—————7—————8——————7—————|E|———————————————————————————————|———————————————————————————| G|—————7—————————————————————|——————————————————————————————|D|———————————10—————9—————7——|—————7—5—7——5—5—7——5—5————5h7—|A|——5————————————————————————|———————————————————————7——————|E|————————8——————7—————5—————|——5———————————————————————————| G|——————————————————————————————|—————7——5/—4————————————|D|—————7h5—5——7—5—7——5—5—7—5————|—————————————————————7——|A|———————————————————————————7——|——5———————————————5—————|E|——5———————————————————————————|————————————————————————| G|—————7—————5—————4————————|————————————————————————————|D|———————————————————————7——|—————7—7—5—————5——5—5—7——7——|A|——5—————x—————x—————x—————|————————————7———————————————|E|——————————————————————————|——5—————————————————————————| G|——————————————————————————|—————7—————5—————4————————|D|—————7——5h—7——5——5—5—7————|———————————————————————7——|A|——————————————————————————|——5—————5—————5—————5—————|E|——5———————————————————————|——————————————————————————| G|—————7—————5—————4————————|———————————————————————————|D|———————————————————————7——|—————7——5—————5—————5h7—7——|A|——5—————5—————5—————5—————|———————————x—————7—————————|E|——————————————————————————|——5————————————————————————| G|———————————————————————————|—————7——5—————5————5—7—7——|D|—————7——5————5——————5h7—7——|———————————7——————————————|A|————————————————7—7————————|——5———————————————————————|E|——5————————————————————————|——————————————————————————| G|—————7——5—————5————5—5———|——————————————————————————|D|———————————7—————————————|—————8————5——4——5—4—7—————|A|——5——————————————————————|——————————————————————————|E|—————————————————————————|——x————————————————————x——| G|———————————————12—13—14/———|—————7————5————————5h7—7——|—————7—————9——————————||D|—————7————5————————————————|———————————————7—7————————|——————————————————————||A|———————————————————————————|——5———————————————————————|——5—————7—————————————||E|——x————————————————————————|——————————————————————————|——————————————————————||






    Copyright 2012 BigBassTabs.com — Bass Tablature archive — Contact us — Privacy policy — Links — Practice routine generator - Music Discipline
     
  3. mrbell321

    mrbell321

    Mar 26, 2012
    N. Colorado
    Its still hard to read tho...
    Code:
    G|------|-----------------------|-------------------------|
    D|------|-------7----5----5h7---|-----7--5----5-----5-7---|
    A|------|-----------------------|----------------7--------|
    E|------|--5--------------------|--5----------------------|
    G|--------7----5----------|-----7--5---------5h7---|--------------------------|
    D|------------------7-----|-------------7----------|--------7----5------5-7---|
    A|--5--5---------------5--|--5---------------------|----------------5-5-------|
    E|------------------------|------------------------|--5--5--------------------|
    G|-------------------------|-----7--5---------5h7---|-----7--5----4---------|
    D|-----7--5-----5----5h7---|-------------7----------|--------------------7--|
    A|-----------7-------------|--5---------------------|--5--------------------|
    E|--5----------------------|------------------------|-----------------------|
    G|---------------12-13-14/---|---------------12-13-14/---|
    D|-----7----5----------------|--0--7----5----------------|
    A|---------------------------|---------------------------|
    E|--5------------------------|---------------------------|
    G|-----7--5---------5--7--|-----7--5----4---------|------------------------|
    D|-------------7----------|------------------7----|--------7----5----5h-7--|
    A|--5---------------------|--5--------------------|------------------------|
    E|------------------------|-----------------------|--5--5------------------|
    G|------------------------|-----7----5----4-------|-----7----5-------5--7--|
    D|-----7----5-------5h7---|--------------------7--|---------------7--------|
    A|---------------7--------|--5--------------------|--5---------------------|
    E|--5---------------------|-----------------------|------------------------|
    G|------------------------|---------------12-13-14/---|-----7----5----4-------|
    D|-----7----5-------5h7---|-----7----5----------------|--------------------7--|
    A|---------------7--------|---------------------------|--5--------------------|
    E|--5---------------------|--5------------------------|-----------------------|
    G|-----7----5----4-------|-----------------------|------------------------|
    D|--------------------7--|-----------------5--7--|-----------------5-6-7--|
    A|--5--------------------|-------5----5----------|-------5----7-----------|
    E|-----------------------|--5--------------------|--5---------------------|
    G|-----7----5----4-------|-----7-----9-----10-----7--|------------------------|
    D|--------------------7--|---------------------------|--------7----5----5h7---|
    A|--5--------------------|--5-----7-----8------5-----|-----5------------------|
    E|-----------------------|---------------------------|--5---------------------|
    G|---------------12-13-14/----|-----7----5----4-------|-----7-----5-----4--------|
    D|-----7----5--------------0--|--------------------7--|-----------------------7--|
    A|----------------------------|--5--------------------|--5-----5-----5-----5-----|
    E|--5-------------------------|-----------------------|--------------------------|
    G|-------------------------|--------------------------|-----7----5----4-------|
    D|-----7--5----------5h7---|-----7--5-----5-----5h7---|--------------------7--|
    A|-----------5--7----------|-----------5-----7--------|--5--------------------|
    E|--5----------------------|--5-----------------------|-----------------------|
    G|-----7----5-----4--------|------------------------|---------------------------|
    D|----------------------7--|-----7----9----10/---7--|-----7-----9-----10/-------|
    A|--5----------5-----5-----|------------------------|---------------------------|
    E|-------------------------|--5---------------------|--5-----7-----8------5--8--|
    G|-----7--5----4----------|-----7-----9-----10------12/-|
    D|------------------7-----|-----------------------------|
    A|--5------------------5--|--5-----7-----8------10------|
    E|------------------------|-----------------------------|
    G|-------------------------|-------------------------|-----7--5----4-----------|
    D|-----7--5----5-----5--7--|-----7--5----5-----5--7--|----------------0--7-----|
    A|-----------------7-------|-----------------7-------|--5-------------------5--|
    E|--5----------------------|--5----------------------|-------------------------|
    G|-----7--5----4-----------|------------------------|
    D|-------------------7-----|-----7----5-------5h7---|
    A|--5-------------5-----5--|---------------7--------|
    E|-------------------------|--5---------------------|
    G|-----------------12-13-14/---|-----7----5----4-------|
    D|-----7--5---x-7--------------|--------------------7--|
    A|-----------------------------|--5--------------------|
    E|--5--------------------------|-----------------------|
    G|-----7-----9-----x--------|-------------------------|-------------------------|
    D|-----------------------7--|-----7----5--7-----------|-----7----5--7-----------|
    A|--5-----7-----x-----5-----|----------------------7--|----------------7/----7--|
    E|--------------------------|--5-------------x--5-----|--5----------------5-----|
    G|-----7-----9-----10-----9--|-----7-----9-----10------12--|
    D|---------------------------|-----------------------------|
    A|--5-----7-----8------7-----|--5-----7-----8------10------|
    E|---------------------------|-----------------------------|
    G|------14----14-14---12-13-14-----|-----14-----14-----12-12-12/---|
    D|---------------------------------|-------------------------------|
    A|--12--------------------------0--|--0------0------0--------------|
    E|---------------------------------|-------------------------------|
    G|-----7-----9-----10-----9--|-----7-----9-----10/-------|
    D|---------------------------|---------------------------|
    A|--5-----7-----8------7-----|--5-----7-----x------5-----|
    E|---------------------------|------------------------5--|
    G|-------10----10------------|-----9----9----9---------|-----7----7----7---------|
    D|-------------------8-9-10--|------------------7-8-9--|------------------5-6-7--|
    A|--8------------------------|--7----------------------|--5----------------------|
    E|---------------------------|-------------------------|-------------------------|
    G|-------------------------|-----10----10----10----------|
    D|-------------------------|---------------------8-9-10--|
    A|--5----5-----------5-----|--8--------------------------|
    E|----------5--5--7-----5--|-----------------------------|
    G|-----9----9----9---------|-----7----7----7---------|-----------------------|
    D|------------------7-8-9--|------------------5-6-7--|-----------------------|
    A|--7----------------------|--5----------------------|--7--7--7------7--7----|
    E|-------------------------|-------------------------|-----------------------|
    G|---------------------------|---------------------------|
    D|-----7-----9-----10-----9--|-----7-----9-----10/-------|
    A|---------------------------|---------------------------|
    E|--5-----7-----8------7-----|--5-----7-----8------5--8--|
    G|-----7-----9-----10-----9--|-----7----------------------|
    D|---------------------------|-----------10-----9-----10--|
    A|--5-----7-----8------7-----|--5-------------------------|
    E|---------------------------|--------8------7-----8------|
    G|-------------------------|-----------------12-13-14/---|
    D|-----7--5----5-----5h7---|-----7--5-----5--------------|
    A|----------------7--------|-----------7-----------------|
    E|--5----------------------|--5--------------------------|
    G|-----7-----9-----10-----9--|-----7-----9-----10------12/-|
    D|---------------------------|-----------------------------|
    A|--5-----7-----8------7-----|--5-----7-----8------10------|
    E|---------------------------|-----------------------------|
    G|----------------------------|--------------------------|-----7----5----4-------|
    D|-----7--5-----5------5-7----|-----7--5--------5--5h7---|--------------------7--|
    A|-----------7-----5-5--------|-----------5--7-----------|--5--------------------|
    E|--5-----------------------5-|--5-----------------------|-----------------------|
    G|-----7-----5-----4--------|------------------------|---------------x-x-14/---|
    D|-----------------------7--|-----7----5-------5h7---|-----7----5--------------|
    A|--5-----5-----5-----5-----|---------------7--------|-------------------------|
    E|--------------------------|--5---------------------|--5----------------------|
    G|-----7----9----10----9--|----7----5----4-------|-------------------------|
    D|------------------------|-------------------7--|-----7----5-----5--5h7---|
    A|--5---------------------|----------------------|--5----------7-----------|
    E|------------------------|----------------------|-------------------------|
    G|------------------------|-----7-----9-----10-----9--|
    D|-----7----5----5--5h7---|---------------------------|
    A|--5---------------------|--5-----7-----8------7-----|
    E|------------------------|---------------------------|
    G|-----7----------------------|---------------------------|
    D|-----------10-----9-----10--|-----7-----9-----10-----9--|
    A|--5-------------------------|--5------------------------|
    E|--------8------7-----8------|--------7-----8------7-----|
    G|---------------------------|-----7-----9-----10-----9--|
    D|-----7-----9-----10/-------|---------------------------|
    A|---------------------------|--5-----7-----8------7-----|
    E|--5-----7-----8------5--8--|---------------------------|
    G|-----7----------------------|-----------------------------|
    D|-----------10-----9-----10--|-----7-----9-----10------12--|
    A|--5-------------------------|-----------------------------|
    E|--------8------7-----8------|--5-----7-----8------10------|
    G|---------------------------|-----7-----9-----10-----9--|
    D|-----7-----9-----10-----7--|---------------------------|
    A|---------------------5-----|--5-----7-----8------7-----|
    E|--5-----7-----8------------|---------------------------|
    G|-----7-----9-----10------12-14-|--------------------------|
    D|-------------------------------|----5--7----5------5-7----|
    A|--5-----7-----8------10--------|---------------7-7--------|
    E|-------------------------------|-----------------------5--|
    G|-----------------12-13-14/---|-----7-----9-----10------12/-|
    D|-----7--5-----7--------------|-----------------------------|
    A|-----------7-----------------|--5-----7-----8------10------|
    E|--5--------------------------|-----------------------------|
    G|-----7-----9-----10------12-13-|--14/--------------------|
    D|-------------------------------|--------7----------------|
    A|--5-----7-----8------10--------|-------------------------|
    E|-------------------------------|-----------5--8--5--8----|
    G|----------------------------|-----7------------------5-6-|
    D|-----------9-----10/--------|-----------10-----9---------|
    A|------------------------3-4-|--5-------------------------|
    E|--5---5-7-----8------5------|--------8------7-----5------|
    G|--7--7-----9-----10/------|-------------------------|
    D|--------------------------|-----7--5----5-----5h7---|
    A|--------7-----8------5----|----------------7--------|
    E|--------------------------|--5----------------------|
    G|---------------------------|-----7--5-----5----5h7---|
    D|-----7--5-----5------5h7---|-----------7-------------|
    A|-----------7-----7-7-------|--5----------------------|
    E|--5------------------------|-------------------------|
    G|-----7-----5-----4--------|---------------------------|
    D|-----------------------7--|-----7--5-----5------5h7---|
    A|--5-----5-----5-----5-----|-----------7-----7-7-------|
    E|--------------------------|--5------------------------|
    G|---------------------------|-----7-----9-----10-----9--|
    D|-----7--5-----5------5h7---|---------------------------|
    A|-----------7-----7-7-------|--5-----7-----8------7-----|
    E|--5------------------------|---------------------------|
    G|-----7----------------------|---------------------------|
    D|-----------10-----9-----10--|-----7-----9-----------12/-|
    A|--5-------------------------|---------------------------|
    E|--------8------7-----8------|--5-----7-----8----10------|
    G|---------------0--12-13-14/----|-----7----5----4-------|
    D|-----7--5--5-7--------------0--|--------------------7--|
    A|-------------------------------|--5--------------------|
    E|--5----------------------------|-----------------------|
    G|-----7-----5-----8--------|---------------------------|
    D|-----------------------7--|-----7-----9-----10-----9--|
    A|--5-----x-----x-----5-----|---------------------------|
    E|--------------------------|--5-----7-----8------7-----|
    G|---------------------------|-----7-----9-----10------12/-|
    D|-----7-----9-----10--19/---|-----------------------------|
    A|---------------------------|--5-----7-----8------10------|
    E|--5-----7-----8------------|-----------------------------|
    G|-----7-----9-----10------12/-|------------------12-12-14----|
    D|-----------------------------|------------------------------|
    A|--5-----7-----8------10------|--12----12----12--------------|
    E|-----------------------------|------------------------------|
    G|-------------------12-12-14/---|-----7-----9-----10-----9--|
    D|----------------7--------------|---------------------------|
    A|--12--0--12--0-----------------|--5-----7-----8------7-----|
    E|-------------------------------|---------------------------|
    G|-----7---------------------|------------------------------|
    D|-----------10-----9-----7--|-----7-5-7--5-5-7--5-5----5h7-|
    A|--5------------------------|-----------------------7------|
    E|--------8------7-----5-----|--5---------------------------|
    G|------------------------------|-----7--5/-4------------|
    D|-----7h5-5--7-5-7--5-5-7-5----|---------------------7--|
    A|---------------------------7--|--5---------------5-----|
    E|--5---------------------------|------------------------|
    G|-----7-----5-----4--------|----------------------------|
    D|-----------------------7--|-----7-7-5-----5--5-5-7--7--|
    A|--5-----x-----x-----x-----|------------7---------------|
    E|--------------------------|--5-------------------------|
    G|--------------------------|-----7-----5-----4--------|
    D|-----7--5h-7--5--5-5-7----|-----------------------7--|
    A|--------------------------|--5-----5-----5-----5-----|
    E|--5-----------------------|--------------------------|
    G|-----7-----5-----4--------|---------------------------|
    D|-----------------------7--|-----7--5-----5-----5h7-7--|
    A|--5-----5-----5-----5-----|-----------x-----7---------|
    E|--------------------------|--5------------------------|
    G|---------------------------|-----7--5-----5----5-7-7--|
    D|-----7--5----5------5h7-7--|-----------7--------------|
    A|----------------7-7--------|--5-----------------------|
    E|--5------------------------|--------------------------|
    G|-----7--5-----5----5-5---|--------------------------|
    D|-----------7-------------|-----8----5--4--5-4-7-----|
    A|--5----------------------|--------------------------|
    E|-------------------------|--x--------------------x--|
    G|---------------12-13-14/---|-----7----5--------5h7-7--|-----7-----9----------||
    D|-----7----5----------------|---------------7-7--------|----------------------||
    A|---------------------------|--5-----------------------|--5-----7-------------||
    E|--x------------------------|--------------------------|----------------------||
    
    
     
  4. bspot

    bspot

    Sep 9, 2008
    Charlotte NC
    Thanks for the help! I'll give it a go later today. I'm having a problem finding the pattern in what he's doing in the song. Once I have a pattern in any song, im good...
     
  5. Ibanez Bassist

    Ibanez Bassist

    Jan 30, 2010
    US of A
    If you want to send me an E-Mail address and I can clean it up in Microsoft Word and it will look perfect and legible.. up to you !!
     

Share This Page

  1. This site uses cookies to help personalise content, tailor your experience and to keep you logged in if you register.
    By continuing to use this site, you are consenting to our use of cookies.