Dismiss Notice

Psst... Ready to join TalkBass and start posting, make new friends, sell your gear, and more?  Register your free account in 30 seconds.

where to find basstabs for L-O-V-E- by Natalie Cole

Discussion in 'Tablature and Notation [BG]' started by lenmacbasstabs, Nov 11, 2004.


  1. lenmacbasstabs

    lenmacbasstabs

    Nov 8, 2004
    I really need BASS TABS for L-O-V-E and ORANGE COLORED SKY
    by Natalie cole ( unforgettable album ) :hyper: :hyper: :hyper:
     
  2. hdiddy

    hdiddy Official Forum Flunkee Supporting Member

    Mar 16, 2004
    San Francisco, CA
    TABS?!?! Is that like "headstock"? :eyebrow:
     
  3. Matt Ides

    Matt Ides

    May 12, 2004
    Minneapolis, MN
    oh, tabs....the good old days
     
  4. jani_bjorklund

    jani_bjorklund

    May 22, 2002
    Finland

    love
    natalie_cole
    TablEdited by Poppamies
    Tuning : E A D G Time Signature: 4/4

    tempo 158
    |0-------------------------------|0-------------------------------|
    |----------------0---------------|----------------0---------------|
    |--------------------------------|--------------------------------|
    |--------------------------------|--------------------------------|


    |0-------------------------------|0-----------7-------------------|
    |----------------0---------------|----------------0---------------|
    |--------------------------------|--------------------------------|
    |--------------------------------|--------------------------------|


    |0-------------------------------|0-----------0-------------------|
    |----------------0---------------|----------------0-------0-------|
    |--------------------------------|--------------------------------|
    |--------------------------------|--------------------------------|


    |2-------------------------------|------------7-------------------|
    |----------------0---------------|7---------------0---------------|
    |--------------------------------|--------------------------------|
    |--------------------------------|--------------------------------|


    |2-------------------------------|7-----------7-----------7-------|
    |----------------0---------------|----------------0---------------|
    |--------------------------------|--------------------------------|
    |--------------------------------|--------------------------------|


    |0-------------------------------|0-----------7-------------------|
    |----------------0---------------|----------------0-------4-------|
    |--------------------------------|--------------------------------|
    |--------------------------------|--------------------------------|


    |0-------------------------------|0-----------0---0-------0-------|
    |----------------0---------------|--------------------------------|
    |--------------------------------|--------------------------------|
    |--------------------------------|--------------------------------|


    |----------------0---------------|5---------------4-------5-------|
    |--------------------------------|--------------------------------|
    |3-------------------------------|--------------------------------|
    |--------------------------------|--------------------------------|


    |2-------------------------------|--------------------------------|
    |----------------2---------------|--------------------------------|
    |--------------------------------|0-----------0---2-------4-------|
    |--------------------------------|--------------------------------|


    |--------------------------------|--------------------------------|
    |0-------------------------------|--------------------------------|
    |--------------------------------|--------------------------------|
    |--------------------------------|--------------------------------|


    |0-------------------------------|0-----------7-------------------|
    |----------------0---------------|----------------0---------------|
    |--------------------------------|--------------------------------|
    |--------------------------------|--------------------------------|


    |2-------------------------------|2-----------7-------------------|
    |----------------0---------------|----------------0-------0-------|
    |--------------------------------|--------------------------------|
    |--------------------------------|--------------------------------|


    |2-------------------------------|2-----------7-----------7-------|
    |----------------0---------------|----------------0---------------|
    |--------------------------------|--------------------------------|
    |--------------------------------|--------------------------------|


    |0-------------------------------|0-----------7-----------7-------|
    |----------------0---------------|----------------0---------------|
    |--------------------------------|--------------------------------|
    |--------------------------------|--------------------------------|


    |0-------------------------------|--------------------------------|
    |----------------0---------------|--------------------------------|
    |--------------------------------|--------------------------------|
    |--------------------------------|--------------------------------|



    Created with TablEdit http://www.tabledit.com/
     
  5. Wow, do you realise this is the first time i've seen someone actually submit a tab-hooray! :D