1. Please take 30 seconds to register your free account to remove most ads, post topics, make friends, earn reward points at our store, and more!  

White Zombie tabs

Discussion in 'Tablature and Notation [BG]' started by Serpent Grooves, Mar 4, 2008.


  1. Serpent Grooves

    Serpent Grooves

    Mar 3, 2008
    Hey, this thread is for anyone who wants to help out tabbing White Zombie songs. Sean Yseult is awesome and her bass grooves are to. Right now I am tabbing White Zombie's 1st album; La Sexorcisto. There are some good and bad tabs out there for most of the songs, but I am going to try at ALL of them. Below is the song listing of the 1st album and I put a star next to the ones I am working on. No star means I got it down.

    Welcome to Planet Mother****er/Psychoholic Slag
    Thunderkiss '65
    Black Sunshine
    Soul Crusher
    *Cosmic Monsters Inc.
    *Spiderbaby
    I Am Legend
    *Thrust!
    *Grindhouse (A Go-Go)
    *Starface
    *Warp Asylum
     
  2. Serpent Grooves

    Serpent Grooves

    Mar 3, 2008
    Code:
    Song: Warp Asylem
    Album: Lasexorcisto, Devil Music Vol. 1
    Band: White Zombie
    Instrument: Bass Guitar
    Bassist: Sean Yseult
    
    Standard Tuning (E, A, D, G)
    
    Intro:
    
    |---------9-----9-----9------|[X8]
    |-----8-------8-----8---8----|
    |-7-7---7---7-----7----------|
    |----------------------------|
    
    Riff 1:
    |-------------------------------|[X13]
    |-------------------------------|
    |---7---5-7---5-7---7-----------|
    |-0---0-----0-----0---0-5--3----|
    
    Riff 2:
    |------------------------|[X5]
    |------------------------|
    |------------------------|
    |-3-0-3-0-3-5-6-0-3-5----|
    
    Riff 1 [X10]
    Riff 2[X5]
    
    Bridge:
    |-----------------------------|
    |-----------------------------|
    |-5-7----5-7----5-7----5-7----|
    |-----------------------------|
    
    |------------------------|
    |------------------------|
    |-------5-6-7------------|
    |-3-4-5-------5-4-3-0----|
    
    |----------------------------------|
    |----------------------------------|
    |----------------------------------|
    |-0-0--0-0--0-0-0-0-0-0-0-0-0-0----|
    
    Riff 3: "sail into night, ghost ship a trippin'..."
    |-----------------------------|
    |------------------------------|
    |---7----7-----5-7---5-6-7----|
    |-0----0-----0-----0----------|
    
    Guitar Solo: "away..."
    |-------------------------|
    |-------------------------|
    |--------7---7-----5-6-7--|
    |-0--0-0---0---0-0--------|
    
    Chorus[X5]
    Verse[X9]
    
    Last Verse: "Underneath the body baby, where what you see is, 
    a what you, see & what you... GET!"
    |----------------------------------------|
    |----------------------------------------|
    |---7---5-7---5-7---7--------------------|
    |-0---0-----0-----0---0-5-3--3-2--2-1----|
    
    End Riff:
    |------------------------------------------------|
    |------------------------------------------------|
    |--------7-5--------5-7--------7-5--------5-7----|
    |-0--0-0-----0--0-0-----0--0-0-----0--0-0--------|
    
     
  3. Ramstien

    Ramstien

    Aug 19, 2007
    Perth
    Black Sunshine:

    E| 0-3-5-0-3-5-0-3-5-0-6-5 X 4 Main riff

    D| ----------------------5
    A| -0-3-5-0-5-6-0-5-6-7--6. X 2 Second riff.

    That's basically the whole thing.
     
  4. Serpent Grooves

    Serpent Grooves

    Mar 3, 2008
    These tabs are hella accurate for the song Soul Crusher. Note, I did not tab this myself, its a tab I downloaded from the Guitar Pro website. Whoever tabbed it did a great job!

    Code:
                               05-SOUL-CRUSHER (Bassline)
    
    
      Q=158
     2/4   4/4        3/4        4/4          3/4
      Gtr I
    |-----|----------|----------|------------|--------|
    |-----|-0--------|-(0)------|-(0)--------|-(0)----|
    |-----|----------|----------|------------|--------|
    |-----|-0--------|-(0)------|-(0)--------|-(0)----|
    
    
     4/4          3/4        4/4          3/4
    |------------|----------|------------|----------|-----------|
    |-(0)--------|-(0)------|-(0)--------|-(0)------|-1--1--1---|
    |------------|----------|------------|----------|-----------|
    |-(0)--------|-(0)------|-(0)--------|-(0)------|-1--1--1---|
    
    
     4/4        3/4        4/4          3/4        4/4
    |----------|----------|------------|----------|--------|
    |-0--------|-(0)------|-(0)--------|-(0)------|-(0)----|
    |----------|----------|------------|----------|--------|
    |-0--------|-(0)------|-(0)--------|-(0)------|-(0)----|
    
    
     3/4        4/4          3/4                   4/4
    |----------|------------|----------|----------|----------------|
    |-(0)------|-(0)--------|-(0)------|-1--1--1--|----------------|
    |----------|------------|----------|----------|-0---0-(0)--0---|
    |-(0)------|-(0)--------|-(0)------|-1--1--1--|----------------|
    
    
    |---------------|---------------|---------------|---------------|
    |---------------|---------------|---------------|---------------|
    |-0---0-(0)--0--|-0---0-(0)--0--|-0---0-(0)--0--|-0---0-(0)--0--|
    |---------------|---------------|---------------|---------------|
    
    
                                                     3/4
    |---------------|---------------|---------------|-----------|
    |---------------|---------------|---------------|----1------|
    |-0---0-(0)--0--|-0---0-(0)--0--|-0---0-(0)--0--|-------1---|
    |---------------|---------------|---------------|-1---------|
    
    
     4/4               3/4
    |---7-8---8-------|-5-7---------|
    |-0---------8-7---|-------5-6---|
    |-------5-------5-|-----5-----8-|
    |-----------------|-------------|
    
    
     4/4               3/4           4/4
    |---7-8---8-------|-5-7---------|---7-8---8-------|
    |-----------8-7---|-------5-6---|-----------8-7---|
    |-5-----5-------5-|-----5-----8-|-5-----5-------5-|
    |-----------------|-------------|-----------------|
    
    
     3/4           4/4               3/4                      4/4
    |-5-7---------|---7-8---8-------|-5-7---------|----------|---7-8---8--------|
    |-------5-6---|-----------8-7---|-------5-6---|-1--1--1--|-0---------8-7----|
    |-----5-----8-|-5-----5-------5-|-----5-----8-|----------|-------5-------5--|
    |-------------|-----------------|-------------|-1--1--1--|------------------|
    
    
     3/4           4/4               3/4           4/4               3/4
    |-5-7---------|---7-8---8-------|-5-7---------|---7-8---8-------|-5-7---------|
    |-------5-6---|-----------8-7---|-------5-6---|-----------8-7---|-------5-6---|
    |-----5-----8-|-5-----5-------5-|-----5-----8-|-5-----5-------5-|-----5-----8-|
    |-------------|-----------------|-------------|-----------------|-------------|
    
    
     4/4               3/4                      4/4
    |---7-8---8-------|-5-7---------|----------|---------------|---------------|
    |-----------8-7---|-------5-6---|-1--1--1--|---------------|---------------|
    |-5-----5-------5-|-----5-----8-|----------|-0---0-(0)--0--|-0---0-(0)--0--|
    |-----------------|-------------|-1--1--1--|---------------|---------------|
    
    
    |---------------|---------------|---------------|---------------|
    |---------------|---------------|---------------|---------------|
    |-0---0-(0)--0--|-0---0-(0)--0--|-0---0-(0)--0--|-0---0-(0)--0--|
    |---------------|---------------|---------------|---------------|
    
    
    |---------------|---------------|-----------------|-----------------|
    |---------------|---------------|-1-0-0-0-0-0-0-0-|-----------------|
    |-0---0-(0)--0--|-0---0-(0)--0--|-----------------|-3-5-5-5---------|
    |---------------|---------------|-----------------|---------6-6-6-6-|
    
    
    |-----------------|-----------------|-----------------|-----------------|
    |-----------------|-------------7-6-|-----------------|-----------------|
    |-6-5-5-5-5-5-5-5-|-3-5-5-5-6-5-----|-6-5-5-5-5-5-5-5-|-3-5-5-5---------|
    |-----------------|-----------------|-----------------|---------6-6-6-6-|
    
    
    |-----------------|---------------|-----------------|-----------------|
    |-----------------|---------------|-1-0-0-0-0-0-0-0-|-----------------|
    |-6-5-5-5-5-5-5-5-|-3-5-5-5-------|-----------------|-3-5-5-5---------|
    |-----------------|---------4--3--|-----------------|---------6-6-6-6-|
    
    
    |-----------------|-----------------|-----------------|-----------------|
    |-----------------|-------------7-6-|-----------------|-----------------|
    |-6-5-5-5-5-5-5-5-|-3-5-5-5-6-5-----|-6-5-5-5-5-5-5-5-|-3-5-5-5---------|
    |-----------------|-----------------|-----------------|---------6-6-6-6-|
    
    
    |-----------------|---------------|----------------|-------------------|
    |-----------------|---------------|---------2----2-|-(2)-------0-2-0-2-|
    |-6-5-5-5-5-5-5-5-|-3-5-5-5-------|----------------|-------------------|
    |-----------------|---------4--3--|-2-2-2-2----2---|-----2-2-2---------|
    
    
    |----------------|-0---------------|----------------|-------------------|
    |-(2)-------2----|---2-0-----------|---------2----2-|-(2)-------0-2-0-2-|
    |----------------|-------2-1-0-----|----------------|-------------------|
    |-----2-2-2------|-------------5-7-|-2-2-2-2----2---|-----2-2-2---------|
    
    
    |-----------------|-------------------|----------------|-------------------|
    |-(2)-------2-----|-------------------|---------2----2-|-(2)-------0-2-0-2-|
    |-----------------|-------0---1-0-----|----------------|-------------------|
    |-----2-2-2-----5-|-(5)-2---2-----5-7-|-2-2-2-2----2---|-----2-2-2---------|
    
    
    |----------------|-0---------------|----------------|-------------------|
    |-(2)-------2----|---2-0-----------|---------2----2-|-(2)-------0-2-0-2-|
    |----------------|-------2-1-0-----|----------------|-------------------|
    |-----2-2-2------|-------------5-7-|-2-2-2-2----2---|-----2-2-2---------|
    
    
    |----------------|-0---------------|-----------------------|
    |-(2)-------2----|---2-0-----------|-1--0-0-0-0-0--0-0-0-0-|
    |----------------|-------2-1-0-1-2-|-----------------------|
    |-----2-2-2------|-----------------|-----------------------|
    
    
    |-----------------------|-----------------------|-------------------|
    |-----------------------|-----------------------|-------------------|
    |-3--5-5-5-5------------|-6--5-5-5-5-5--5-5-5-5-|-3--5-5-5-5-6--8---|
    |------------6--6-6-6-6-|-----------------------|-------------------|
    
    
    |-----------------------|-----------------------|------------------------|
    |-----------------------|-----------------------|------------------------|
    |-6--5-5-5-5-5--5-5-5-5-|-3--5-5-5-5------------|-6--5-5-5-5-5--5-5-5-5--|
    |-----------------------|------------6--6-6-6-6-|------------------------|
    
    
    |---------------|----------------|-------------------|----------------|
    |---------------|---------2----2-|-(2)-------0-2-0-2-|-(2)-------2----|
    |-3-5-6-5-------|----------------|-------------------|----------------|
    |---------4--3--|-2-2-2-2----2---|-----2-2-2---------|-----2-2-2------|
    
    
    |-0---------------|----------------|-------------------|-----------------|
    |---2-0-----------|---------2----2-|-(2)-------0-2-0-2-|-(2)-------2-----|
    |-------2-1-0-----|----------------|-------------------|-----------------|
    |-------------5-7-|-2-2-2-2----2---|-----2-2-2---------|-----2-2-2-----5-|
    
    
    |-------------------|-----------|---------|-----------|
    |-------------------|-----------|---------|-----------|
    |-------0---1-0-----|-----------|---------|-----------|
    |-(5)-2---2-----5-7-|-2-2-------|---------|-2-2-------|
    
    
    |-0---------------|----------------|-------------------|----------------|
    |---2-0-----------|---------2----2-|-(2)-------0-2-0-2-|-(2)-------2----|
    |-------2-1-0-----|----------------|-------------------|----------------|
    |-------------5-7-|-2-2-2-2----2---|-----2-2-2---------|-----2-2-2------|
    
    
    |-0---------------|----------------|------------|----------------|
    |---2-0-----------|----------------|------------|----------------|
    |-------2-1-0-1-2-|----------------|------------|----------------|
    |-----------------|-2-4-4-4-4--2-4-|-5-2-4------|-2-4-4-4-4--2-4-|
    
    
    |--------------|----------------|------------|----------------|
    |--------------|----------------|------------|----------------|
    |--------1--0--|----------------|------------|----------------|
    |-5-2-4--------|-2-4-4-4-4--2-4-|-5-2-4------|-2-4-4-4-4--2-3-|
    
    
    |-----------------|----------------|------------|----------------|
    |-----------------|----------------|------------|----------------|
    |---0--2--3-(3)-4-|----------------|------------|----------------|
    |-4---------------|-2-4-4-4-4--2-4-|-5-2-4------|-2-4-4-4-4--2-4-|
    
    
                                                                   2/4
    |--------------|----------------|------------|----------------|------|
    |--------------|----------------|------------|----------------|------|
    |--------1--0--|----------------|------------|----------------|-2----|
    |-5-2-4--------|-2-4-4-4-4--2-4-|-5-2-4------|-2-4-4-4-4--2-3-|------|
    
    
     4/4
    |---------------|----------------|-------------------|----------------|
    |---------------|---------2----2-|-(2)-------0-2-0-2-|-(2)-------2----|
    |-2-1-0--2-1-0--|----------------|-------------------|----------------|
    |---------------|-2-2-2-2----2---|-----2-2-2---------|-----2-2-2------|
    
    
    |-0---------------|----------------|-------------------|-----------------|
    |---2-0-----------|---------2----2-|-(2)-------0-2-0-2-|-(2)-------2-----|
    |-------2-1-0-----|----------------|-------------------|-----------------|
    |-------------5-7-|-2-2-2-2----2---|-----2-2-2---------|-----2-2-2-----5-|
    
    
    |-------------------|----------------|-------------------|----------------|
    |-------------------|---------2----2-|-(2)-------0-2-0-2-|-(2)-------2----|
    |-------0---1-0-----|----------------|-------------------|----------------|
    |-(5)-2---2-----5-7-|-2-2-2-2----2---|-----2-2-2---------|-----2-2-2------|
    
    
    |-0---------------|----------------|-------------------|----------------|
    |---2-0-----------|---------2----2-|-(2)-------0-2-0-2-|-(2)-------2----|
    |-------2-1-0-----|----------------|-------------------|----------------|
    |-------------5-7-|-2-2-2-2----2---|-----2-2-2---------|-----2-2-2------|
    
    
                        Q=112
    |-0---------------|-------------------------|------------------------|
    |---2-0-----------|-------------------------|------------------------|
    |-------2-1-0-----|-------------------------|------------------------|
    |-------------5-7-|-2-4-2-4-2-4-(4)-2-4-5-6-|-2-4-2-4-2-4-(4)-2-4-5--|
    
    
    |-------------------------|------------------------|------------------------|
    |-------------------------|------------------------|------------------------|
    |-------------------------|------------------------|------------------------|
    |-2-4-2-4-2-4-(4)-2-4-5-6-|-2-4-2-4-2-4-(4)-2-4-5--|-2-4-2-4-2-4-(4)-2-4-5--|
    
    
    |------------------------|------------------------|-------------------------|
    |------------------------|------------------------|-------------------------|
    |------------------------|------------------------|---------------------1-0-|
    |-2-4-2-4-2-4-(4)-2-4-5--|-2-4-2-4-2-4-(4)-2-4-5--|-2-4-2-4-2-4-(4)-2-4-----|
    
    
    |------------------------|------------------------|------------------------|
    |------------------------|------------------------|------------------------|
    |------------------------|------------------------|------------------------|
    |-2-4-2-4-2-4-(4)-2-4-5--|-2-4-2-4-2-4-(4)-2-4-5--|-2-4-2-4-2-4-(4)-2-4-5--|
    
    
    |-------------------------|------------------------|------------------------|
    |-------------------------|------------------------|------------------------|
    |---------------------1-0-|------------------------|------------------------|
    |-2-4-2-4-2-4-(4)-2-4-----|-2-4-2-4-2-4-(4)-2-4-5--|-2-4-2-4-2-4-(4)-2-4-5--|
    
    
    |------------------------|-------------------------|------------------------|
    |------------------------|-------------------------|------------------------|
    |------------------------|-------------------------|------------------------|
    |-2-4-2-4-2-4-(4)-2-4-5--|-2-4-2-4-2-4-(4)-2-4-5-5-|-2-4-2-4-2-4-(4)-2-4-5--|
    
    
    |------------------------|------------------------|-------------------------|
    |------------------------|------------------------|-------------------------|
    |------------------------|------------------------|-------------------------|
    |-2-4-2-4-2-4-(4)-2-4-5--|-2-4-2-4-2-4-(4)-2-4-5--|-2-4-2-4-2-4-(4)-2-4-5-5-|
    
    
    |------------------------|------------------------|------------------------|
    |------------------------|------------------------|------------------------|
    |------------------------|------------------------|------------------------|
    |-2-4-2-4-2-4-(4)-2-4-5--|-2-4-2-4-2-4-(4)-2-4-5--|-2-4-2-4-2-4-(4)-2-4-5--|
    
    
    |-------------------------|------------------------|------------------------|
    |-------------------------|------------------------|------------------------|
    |---------------------1-0-|------------------------|------------------------|
    |-2-4-2-4-2-4-(4)-2-4-----|-2-4-2-4-2-4-(4)-2-4-5--|-2-4-2-4-2-4-(4)-2-4-5--|
    
    
    |------------------------|-------------------------|
    |------------------------|-------------------------|
    |------------------------|---------------------1-0-|
    |-2-4-2-4-2-4-(4)-2-4-5--|-2-4-2-4-2-4-(4)-2-4-----|
    
    
     1/4       4/4
    |---------|------------------------|
    |---------|------------------------|
    |---------|------------------------|
    |---------|-2-4-2-4-2-4-(4)-2-4-5--|
    
    
    |------------------------|------------------------|
    |------------------------|------------------------|
    |------------------------|------------------------|
    |-2-4-2-4-2-4-(4)-2-4-5--|-2-4-2-4-2-4-(4)-2-4-5--|
    
    
                               2/4
    |-------------------------|-----|
    |-------------------------|-----|
    |---------------------1-0-|-----|
    |-2-4-2-4-2-4-(4)-2-4-----|-----|
    
    
      Q=158
     4/4        3/4        4/4          3/4        4/4
    |----------|----------|------------|----------|--------|
    |----------|----------|------------|----------|--------|
    |-0--------|-(0)------|-(0)--------|-(0)------|-(0)----|
    |----------|----------|------------|----------|--------|
    
    
     3/4        4/4          3/4                   4/4
    |----------|------------|----------|----------|---2-3---3--------|
    |----------|------------|----------|----------|-----------3-2----|
    |-(0)------|-(0)--------|-(0)------|-1--1--1--|-0-----0-------0--|
    |----------|------------|----------|----------|------------------|
    
    
     3/4           4/4               3/4           4/4               3/4
    |-0-2---------|---2-3---3-------|-0-2---------|---2-3---3-------|-0-2---------|
    |-------0-1---|-----------3-2---|-------0-1---|-----------3-2---|-------0-1---|
    |-----0-----3-|-0-----0-------0-|-----0-----3-|-0-----0-------0-|-----0-----3-|
    |-------------|-----------------|-------------|-----------------|-------------|
    
    
     4/4               3/4
    |---2-3---3-------|-0-2---------|----------|-----------*|
    |-----------3-2---|-------0-1---|----------|-----------*|
    |-0-----0-------0-|-----0-----3-|-1--1--1--|-1--1--1---*|
    |-----------------|-------------|----------|-----------*|
    
    
    
    ***************************************************************************************
    * Generated using Power Tab Editor by Brad Larsen - http://powertab.guitarnetwork.org *
    ***************************************************************************************
    
     
  5. Serpent Grooves

    Serpent Grooves

    Mar 3, 2008
    Might very well be my favorite song on the whole album. Did all this by ear, but still working on it. Suggestions are always welcome.

    Code:
    Song: Thrust!
    Album: Lasexorcisto, Devil Music Vol. 1
    Band: White Zombie
    Instrument: Bass Guitar
    Bassist: Sean Yseult
    
    
      4/4
    Intro:
    |----------------------------------------|
    |----------------------------------------|
    |--5-4-3-7--5-4-3-7--5-4-3-7--5-4-3-2----|
    |----------------------------------------|
    
    Riff 1: ("Yeah, maybe, the night ride's gonna, bleed...")
    |------------------------------------------|[X2]
    |------------------------------------------|
    |-----7---7-5-----5-7-----7---5-7---8-7----|
    |-0-0---0-----7-0-----0-0---0-----0--------|
    
    
    |--------------------------------------|
    |--------------------------------------|
    |-----7---7-5-----5-7-----7---7-5-5----|
    |-0-0---0-----7-0-----0-0---0----------|
    
    Riff 2: ("Thrust in deep there are no limitations...")
    |------------------------------------------------------|[X2]
    |------------------------------------------------------|
    |-------------5-7-------------7-5----------------------|
    |-0-0-0-0-0-0-----0-0-0-0-0-0-----0-0-0-5-5-5-6-6-6----|
    
    Riff 1
    
    Riff 3:
    |--------------------------------------|[X2]
    |--------------------------------------|
    |---------------------------7---5------|
    |-2-2-2--2-2-2--15/0--2-2-2---0---0----|
    
    Riff 4: ("Open the darkness an hour later to the minute, moment...")
    |---------------------------------------------|[X10]
    |---------------------------------------------|
    |---------------------------------------------|
    |-0h2-0h2-0h2-0-0-0-0-0-0-0h2-0h2-0h2-0h2-----|
    
    Then end with;
    |------------|
    |------------|
    |-7---5------|
    |---0---0----|
    
    
    Riff 5: (Right after Rob says "Through the sea of Love...")
    |--------------------------|[X10]
    |--------------------------|
    |----7-6-6-7----5-4-4-5----|
    |-5-----------3------------|
    
    Riff 6: ("Life on line, still in time, you will find, she has gone away...")
    |-----------------------------------------|[X3]
    |-----------------------------------------|
    |-----7-----7-----7-----7-----7-----------|
    |-000---000---000---000---000---0005-5----|
    
    
    On last round end with this (instead of 000-5-5):
    |--------------|
    |--------------|
    |--------------|
    |-0---0---0----|
    
    Riff 2
    Riff 1                                              
    
    Outro: ("How fast can you really move me...")
    |------------------------------|[X3]
    |------------------------------|
    |-3--4--5----------------------|
    |---------0-0-0-0-0-0-0-0-0----|
    
    
    |------------------------|
    |------------------------|
    |--------3--5--4--3------|
    |0--0--0-------------0---|
    
    _____________________________________________
    
    Hope you all like this tab. Whole thing is done by ear, but its very accurate. Just figure out the rhythmes and your set!
    
    
     
  6. Serpent Grooves

    Serpent Grooves

    Mar 3, 2008
    This is another Guitar Pro tab I got that was really well done. Seems there are really bad tabs out there for this song, but this tab is great.

    Code:
    |---------|---------|---------|-----------------|
    |---------|---------|---------|-----------------|
    |---------|---------|---------|-----------------|
    |---------|---------|---------|-0-0-0-0-0-0-0-0-|
    
    
                        Q=130
    |-----------------|-----------------|------------------|----------------|
    |-----------------|-0---------------|------------------|----------------|
    |-----------------|---7-7-5-7-7-7-5-|-7--7-5-(5)-7-7-7-|-5-7-7-5-7------|
    |-0-0-0-0-0-0-0-0-|-0-0-0-0-0-0-0-0-|-0--0-0-(0)-0-0-0-|-0-0-0-0-0--0-0-|
    
    
    |-----------------|-----------------|---------------------|----------------|
    |-----------------|-----------------|---------------------|----------------|
    |-----------------|-5-7-7-5-7-7-7-5-|-7-7-(7)-5-(5)-7-7-7-|-5-7-7--5-7-----|
    |-3-0-0-5-0-0-6-5-|-0-0-0-0-0-0-0-0-|-0-0-(0)-0-(0)-0-0-0-|-0-0-0--0-0-0-0-|
    
    
    |-----------|-----------------|---------------------|----------------|
    |-----------|-----------------|---------------------|----------------|
    |-----------|-5-7-7-5-7-7-7-5-|-7-7-(7)-5-(5)-7-7-7-|-5-7-7--5-7-----|
    |-8----5----|-0-0-0-0-0-0-0-0-|-0-0-(0)-0-(0)-0-0-0-|-0-0-0--0-0-0-0-|
    
    
    |-----------------|-----------------|------------------|----------------|
    |-----------------|-----------------|------------------|----------------|
    |-----------------|-5-7-7-5-7-7-7-5-|-7-7-(7)-5-7--7-7-|-5-7-7--5-------|
    |-3-0-0-5-0-0-6-5-|-0-0-0-0-0-0-0-0-|-0-0-(0)-0-0--0-0-|-0-0-0--0-0-0-0-|
    
    
    |-----------|-----------------|-----------------|-----------------|
    |-----------|-----------------|-----------------|-----------------|
    |-3---------|-----------------|-----------2--0--|-----------------|
    |------5----|-0-1-0-0-1-2-0-2-|-(2)-0-2-0-------|-0-1-2-0-1-2-0-2-|
    
    
    |-------------------|-----------------|-----------------|-----------------|
    |-------------------|-----------------|-----------------|-----------------|
    |-------------------|-----------------|-----------2--0--|-----------------|
    |-(2)-3-2-1-0-1-2-3-|-0-1-0-0-1-2-0-2-|-(2)-0-2-0-------|-0-1-0-0-1-2-0-2-|
    
    
    |------------------|-----------------|-----------------|-----------------|
    |------------------|-----------------|-----------------|-----------------|
    |------------------|-----------------|-----------2--0--|-----------------|
    |-(2)-0-2-0-2-0-3--|-0-1-0-0-1-2-0-2-|-(2)-0-2-0-------|-0-1-2-0-1-2-0-2-|
    
    
    |-------------------|-----------------|-----------------|-----------------|
    |-------------------|-----------------|-----------------|-----------------|
    |-------------------|-----------------|-----------2--0--|-----------------|
    |-(2)-3-2-1-0-1-2-3-|-0-1-0-0-1-2-0-2-|-(2)-0-2-0-------|-0-1-2-0-1-2-0-0-|
    
    
    |-----------------|-----------------|---------------------|----------------|
    |-----------------|-----------------|---------------------|----------------|
    |-----------------|-5-7-7-5-7-7-7-5-|-7-7-(7)-5-(5)-7-7-7-|-5-7-7--5-7-----|
    |-3-0-0-5-0-0-6-5-|-0-0-0-0-0-0-0-0-|-0-0-(0)-0-(0)-0-0-0-|-0-0-0--0-0-0-0-|
    
    
    |-----------|-----------------|---------------------|----------------|
    |-----------|-----------------|---------------------|----------------|
    |-----------|-5-7-7-5-7-7-7-5-|-7-7-(7)-5-(5)-7-7-7-|-5-7-7--5-7-----|
    |-8----5----|-0-0-0-0-0-0-0-0-|-0-0-(0)-0-(0)-0-0-0-|-0-0-0--0-0-0-0-|
    
    
    |-----------------|-----------------|------------------|----------------|
    |-----------------|-----------------|------------------|----------------|
    |-----------------|-5-7-7-5-7-7-7-5-|-7-7-(7)-5-7--7-7-|-5-7-7--5-------|
    |-3-0-0-5-0-0-6-5-|-0-0-0-0-0-0-0-0-|-0-0-(0)-0-0--0-0-|-0-0-0--0-0-0-0-|
    
    
    |-----------|-----------------|-----------------|-----------------|
    |-----------|-----------------|-----------------|-----------------|
    |-3---------|-----------------|-----------2--0--|-----------------|
    |------5----|-0-1-0-0-1-2-0-2-|-(2)-0-2-0-------|-0-1-2-0-1-2-0-2-|
    
    
    |-------------------|-----------------|-----------------|-----------------|
    |-------------------|-----------------|-----------------|-----------------|
    |-------------------|-----------------|-----------2--0--|-----------------|
    |-(2)-3-2-1-0-1-2-3-|-0-1-0-0-1-2-0-2-|-(2)-0-2-0-------|-0-1-2-0-1-2-0-0-|
    
    
    |-----------------|----------|-------------|-----------|
    |-----------------|----------|-------------|-----------|
    |-----------------|----------|-------------|-----------|
    |-3-0-0-5-0-0-6-5-|-0--------|-(0)------1--|-0------3--|
    
    
    |---------------|----------|-------------|-----------|
    |---------------|----------|-------------|-----------|
    |-----7--5------|----------|-------------|-----------|
    |-5-6------7-6--|-0--------|-(0)------1--|-0------3--|
    
    
    |---------------|-----------------|-----------------|-----------------|
    |---------------|-----------------|-----------------|-----------------|
    |-----7--5------|-7-------7-------|-7---------------|-7-------7-------|
    |-5-6------7-6--|-0-0-0-0-0-0-0-0-|-0-0-0-0-3-5-6-5-|-0-0-0-0-0-0-0-0-|
    
    
    |-----------------|-----------------|-----------------|-----------------|
    |-----------------|-----------------|-----------------|-----------------|
    |-7---------------|-7-------7-------|-7---------------|-7-------7-------|
    |-0-0-0-0-6-5-3-5-|-0-0-0-0-0-0-0-0-|-0-0-0-0-3-5-6-5-|-0-0-0-0-0-0-0-0-|
    
    
    |-------------------|-----------------|-----------------|-----------------|
    |-------------------|-----------------|-----------------|-----------------|
    |-------------------|-7-------7-------|-7---------------|-7-------7-------|
    |-0-6-(6)--0-6-(6)--|-0-0-0-0-0-0-0-0-|-0-0-0-0-3-5-6-5-|-0-0-0-0-0-0-0-0-|
    
    
    |-----------------|-----------------|-----------------|-----------------|
    |-----------------|-----------------|-----------------|-----------------|
    |-7---------------|-7-------7-------|-7---------------|-7-------7-------|
    |-0-0-0-0-6-5-3-5-|-0-0-0-0-0-0-0-0-|-0-0-0-0-3-5-6-5-|-0-0-0-0-0-0-0-0-|
    
    
    |-------------------|-----------------|-----------------|-----------------|
    |-------------------|-----------------|-----------------|-----------------|
    |-------------------|-----------------|-----------2--0--|-----------------|
    |-0-6-(6)--0-6-(6)--|-0-1-2-0-1-2-0-2-|-(2)-0-2-0-------|-0-1-2-0-1-2-0-2-|
    
    
    |-----------|-----------------|-----------------|-----------------|
    |-----------|-----------------|-----------------|-----------------|
    |-----------|-----------------|-----------2--0--|-----------------|
    |-3------3--|-0-1-2-0-1-2-0-2-|-(2)-0-2-0-------|-0-1-2-2-1-2-0-0-|
    
    
    |------------|-----------------|------------------|-----------------|
    |------------|-----------------|------------------|-----------------|
    |-1----1-----|-5-7-7-5-7-7-7-5-|-7-7-(7)-5-7--7-7-|-----------------|
    |---------3--|-0---0-0-0-0-0-0-|-0-0-(0)-0-0--0-0-|-3-0-0-5-0-0-6-5-|
    
    
    |-----------------|------------------|----------------|-----------|
    |-----------------|------------------|----------------|-----------|
    |-5-7-7-5-7-7-7-5-|-7-7-(7)-5-7--7-7-|-5-7-7--5-7-----|-----------|
    |-0---0-0-0-0-0-0-|-0-0-(0)-0-0--0-0-|-0---0--0-0-0-0-|-8----5----|
    
    
    |-----------------|------------------|----------------|-----------------|
    |-----------------|------------------|----------------|-----------------|
    |-5-7-7-5-7-7-7-5-|-7-7-(7)-5-7--7-7-|-5-7-7--5-7-----|-----------------|
    |-0---0-0-0-0-0-0-|-0-0-(0)-0-0--0-0-|-0---0--0-0-0-0-|-3-0-0-5-0-0-6-5-|
    
    
    |-----------------|------------------|----------------|-----------------|
    |-----------------|------------------|----------------|-----------------|
    |-5-7-7-5-7-7-7-5-|-7-7-(7)-5-7--7-7-|-5-7-7--5-7-----|-----------------|
    |-0---0-0-0-0-0-0-|-0-0-(0)-0-0--0-0-|-0---0--0-0-0-0-|-3-0-0-5-0-0-6-5-|
    
    
    |-----------------|-----------------|-----------------|-----------------|
    |-----------------|-----------------|-----------------|-----------------|
    |-----------------|-----------------|-----------------|-----------------|
    |-3-0-0-5-0-0-6-5-|-3-0-0-5-0-0-6-5-|-3-0-0-5-0-0-6-5-|-3-0-0-5-0-0-6-5-|
    
    
                        Q=121      Q=111      Q=116
    |-----------------|----------|----------|------|
    |-----------------|----------|----------|------|
    |-----------------|-7--------|-7--------|-7----|
    |-3-0-0-5-0-0-6-5-|-0--------|-0--------|-0----|
    
    
      Q=101      Q=100
    |----------|------*|
    |----------|------*|
    |-7--------|-7----*|
    |-0--------|-0----*|
    
    
    
    ***************************************************************************************
    * Generated using Power Tab Editor by Brad Larsen - http://powertab.guitarnetwork.org *
    ***************************************************************************************
    
     
  7. Serpent Grooves

    Serpent Grooves

    Mar 3, 2008
    Actually, this is basically the whole thing (another power tab):

    Code:
                            BLACK SUNSHINE (Bassline)
    
    
      Q=165
     6/4
      Gtr I
    |-------------------------|-------------------------|-------------------------|
    |-------------------------|-------------------------|-------------------------|
    |-------------------------|-------------------------|-------------------------|
    |-0-3-5-0-3-5-0-3-5-0-6-5-|-0-3-5-0-3-5-0-3-5-0-6-5-|-0-3-5-0-3-5-0-3-5-0-6-5-|
    
    
    |-------------------------|-------------------------|--------------------------|
    |-------------------------|-------------------------|--------------------------|
    |-------------------------|-------------------------|--------------------------|
    |-0-3-5-0-3-5-0-3-5-0-6-5-|-0-3-5-0-3-5-0-3-5-0-6-5-|-0-3-5-0-3-5-0-3-5-0-6-5--|
    
    
    |-------------------------|-------------------------|--------------------------|
    |-------------------------|-------------------------|--------------------------|
    |-------------------------|-------------------------|--------------------------|
    |-0-3-5-0-3-5-0-3-5-0-6-5-|-0-3-5-0-3-5-0-3-5-0-6-5-|-0-3-5-0-3-5-0-3-5-0-6-5--|
    
    
    |-------------------------|-------------------------|--------------------------|
    |-------------------------|-------------------------|--------------------------|
    |-------------------------|-------------------------|--------------------------|
    |-0-3-5-0-3-5-0-3-5-0-6-5-|-0-3-5-0-3-5-0-3-5-0-6-5-|-0-3-5-0-3-5-0-3-5-0-6-5--|
    
    
    |-------------------------|-------------------------|--------------------------|
    |-------------------------|-------------------------|--------------------------|
    |-------------------------|-------------------------|--------------------------|
    |-0-3-5-0-3-5-0-3-5-0-6-5-|-0-3-5-0-3-5-0-3-5-0-6-5-|-0-3-5-0-3-5-0-3-5-0-6-5--|
    
    
    |-------------------------|---------------------------|
    |-------------------------|---------------------------|
    |-------------------------|---3-5---5-6---6-7-8-10----|
    |-0-3-5-0-3-5-0-3-5-0-6-5-|-5-----5-----5----------12-|
    
    
    |----------------------------------|
    |----------------------------------|
    |-0------0-------0-----------------|
    |---8-10---10-11---11-12-13-15-12--|
    
    
    |---------------------------------|
    |---------------------------------|
    |-0------0-------0----------------|
    |---8-10---10-11---11-12-13-15-12-|
    
    
    |---------------------------------|--------------------------|
    |---------------------------------|--------------------------|
    |-0------0-------0----------------|--------------------------|
    |---8-10---10-11---11-12-13-15-12-|-0-3-5-0-3-5-0-3-5-0-6-5--|
    
    
    |-------------------------|-------------------------|--------------------------|
    |-------------------------|-------------------------|--------------------------|
    |-------------------------|-------------------------|--------------------------|
    |-0-3-5-0-3-5-0-3-5-0-6-5-|-0-3-5-0-3-5-0-3-5-0-6-5-|-0-3-5-0-3-5-0-3-5-0-6-5--|
    
    
    |-------------------------|-------------------------|--------------------------|
    |-------------------------|-------------------------|--------------------------|
    |-------------------------|-------------------------|--------------------------|
    |-0-3-5-0-3-5-0-3-5-0-6-5-|-0-3-5-0-3-5-0-3-5-0-6-5-|-0-3-5-0-3-5-0-3-5-0-6-5--|
    
    
    |-------------------------|---------------------------|
    |-------------------------|---------------------------|
    |-------------------------|---3-5---5-6---6-7-8-10----|
    |-0-3-5-0-3-5-0-3-5-0-6-5-|-5-----5-----5----------12-|
    
    
    |----------------------------------|
    |----------------------------------|
    |-0------0-------0-----------------|
    |---8-10---10-11---11-12-13-15-12--|
    
    
    |---------------------------------|
    |---------------------------------|
    |-0------0-------0----------------|
    |---8-10---10-11---11-12-13-15-12-|
    
    
    |---------------------------------|--------------------------|
    |---------------------------------|--------------------------|
    |-0------0-------0----------------|--------------------------|
    |---8-10---10-11---11-12-13-15-12-|-0-3-5-0-3-5-0-3-5-0-6-5--|
    
    
    |-------------------------|-------------------------|--------------------------|
    |-------------------------|-------------------------|--------------------------|
    |-------------------------|-------------------------|--------------------------|
    |-0-3-5-0-3-5-0-3-5-0-6-5-|-0-3-5-0-3-5-0-3-5-0-6-5-|-0-3-5-0-3-5-0-3-5-0-6-5--|
    
    
    |-------------------------|-------------------------|--------------------------|
    |-------------------------|-------------------------|--------------------------|
    |-------------------------|-------------------------|--------------------------|
    |-0-3-5-0-3-5-0-3-5-0-6-5-|-0-3-5-0-3-5-0-3-5-0-6-5-|-0-3-5-0-3-5-0-3-5-0-6-5--|
    
    
    |-------------------------|---------------------------|
    |-------------------------|---------------------------|
    |-------------------------|---3-5---5-6---6-7-8-10----|
    |-0-3-5-0-3-5-0-3-5-0-6-5-|-5-----5-----5----------12-|
    
    
    |----------------------------------|
    |----------------------------------|
    |-0------0-------0-----------------|
    |---8-10---10-11---11-12-13-15-12--|
    
    
                                                                        4/4
    |---------------------------------|--------------------------------|----------|
    |---------------------------------|--------------------------------|----------|
    |-0------0-------0----------------|-0------0-------0---------------|----------|
    |---8-10---10-11---11-12-13-15-12-|---8-10---10-11---11-12-13-15-0-|-0--------|
    
    
    |-------------|----------|-------------|----------|
    |-------------|----------|-------------|----------|
    |-------------|----------|-------------|----------|
    |-----1-2-3-4-|-3--------|-----1-2-3-4-|-3--------|
    
    
    |-------------|----------|-------------|---------------------|
    |-------------|----------|-------------|-2-2-2-2-2-2-2-2-2-2-|
    |-------------|----------|-------------|---------------------|
    |-----1-2-3-4-|-3--------|-----1-2-3-4-|---------------------|
    
    
    |-----------------|---------------------|
    |-0---------------|-2-2-0-2-2-2-2-2-2-2-|
    |-------------1-2-|---------------------|
    |---0-0-0-0-0-----|---------------------|
    
    
    |-------------------|---------------------|
    |-0-2-2-2-(2)-------|-2-2-0-2-2-2-2-2-2-2-|
    |-------------------|---------------------|
    |-------------0-2-3-|---------------------|
    
    
    |-------------------|---------------------|
    |-0-2-2-2-(2)-2-----|-2-2-0-2-2-2-2-2-2-2-|
    |---------------1-2-|---------------------|
    |-------------------|---------------------|
    
    
    |-------------------|---------------------|
    |-0-2-2-2-(2)-------|-2-2-0-2-2-2-2-2-2-2-|
    |-------------------|---------------------|
    |-------------0-2-3-|---------------------|
    
    
    |-------------------|---------------------|
    |-0-2-2-2-(2)-2-----|-2-2-0-2-2-2-2-2-----|
    |---------------1-2-|---------------------|
    |-------------------|-----------------0-0-|
    
    
    |-------------------|---------------------|
    |-------------------|-2-2-0-2-2-2-2-2-2-2-|
    |-------------------|---------------------|
    |-0-0-0-0-(0)-0-2-3-|---------------------|
    
    
    |-------------------|---------------------|
    |-0-2-2-2-(2)-2-----|-2-2-0-2-2-2-2-2-2-2-|
    |---------------1-2-|---------------------|
    |-------------------|---------------------|
    
    
    |-------------------|-----------------|
    |-0-2-2-2-(2)-------|-----------------|
    |-------------------|-----------------|
    |-------------0-2-3-|-0-0-0-0-0-0-0-0-|
    
    
    |-----------------|-----------------|---------------|-----------------|
    |-----------------|-----------------|---------------|-----------------|
    |---------------1-|-----------------|-1----1-----1--|-----------------|
    |-0-0-0-0-0-0-0---|-0-0-0-0-0-0-0-0-|---0----0-0----|-0-0-0-0-0-0-0-0-|
    
    
    |-----------------|-----------------|---------------|-----------------|
    |-----------------|-----------------|---------------|-----------------|
    |---------------1-|-----------------|-1----1-----1--|-----------------|
    |-0-0-0-0-0-0-0---|-0-0-0-0-0-0-0-0-|---0----0-0----|-0-0-0-0-0-0-0-0-|
    
    
    |-----------------|-----------------|---------------|-----------------|
    |-----------------|-----------------|---------------|-----------------|
    |---------------1-|-----------------|-1----1-----1--|-----------------|
    |-0-0-0-0-0-0-0---|-0-0-0-0-0-0-0-0-|---0----0-0----|-0-0-0-0-0-0-0-0-|
    
    
    |-----------------|-----------------|---------------|--------------------|
    |-----------------|-----------------|---------------|---------2-2-2-2-2--|
    |---------------1-|-----------------|-1----1-----1--|--------------------|
    |-0-0-0-0-0-0-0---|-0-0-0-0-0-0-0-0-|---0----0-0----|-0-0-0-0------------|
    
    
    |-------------------|----------------------|-------------------|
    |-0-----------------|-2-2-0-2-2-2-2-2-2-2--|-0-2-2-2-(2)-------|
    |---------------1-2-|----------------------|-------------------|
    |---0-0-0-(0)-0-----|----------------------|-------------0-2-3-|
    
    
    |----------------------|-------------------|
    |-2-2-0-2-2-2-2-2-2-2--|-0-----------------|
    |----------------------|---------------1-2-|
    |----------------------|---0-0-0-(0)-0-----|
    
    
    |---------------------|--------------------|
    |-2-2-0-0-0-0-0-0-0-0-|-0-2-2-2-(2)--------|
    |---------------------|--------------------|
    |---------------------|-------------0-2-3--|
    
    
    |-----------------|-----------------|-----------------|---------------|
    |-----------------|-----------------|-----------------|---------------|
    |-----------------|---------------1-|-----------------|-1----1-----1--|
    |-0-0-0-0-0-0-0-0-|-0-0-0-0-0-0-0---|-0-0-0-0-0-0-0-0-|---0----0-0----|
    
    
    |-----------------|-----------------|-----------------|---------------|
    |-----------------|-----------------|-----------------|---------------|
    |-----------------|---------------1-|-----------------|-1----1-----1--|
    |-0-0-0-0-0-0-0-0-|-0-0-0-0-0-0-0---|-0-0-0-0-0-0-0-0-|---0----0-0----|
    
    
     6/4
    |-------------------------|-------------------------|-------------------------|
    |---------------------5---|---------------------5---|---------------------5---|
    |-0-3-5---5-6---5-6-7---6-|---3-5---5-6---5-6-7---6-|---3-5---5-6---5-6-7---6-|
    |-------5-----5-----------|-5-----5-----5-----------|-5-----5-----5-----------|
    
    
    |-------------------------|-------------------------|--------------------------|
    |---------------------5---|-------------------------|--------------------------|
    |---3-5---5-6---5-6-7---6-|-------------------------|--------------------------|
    |-5-----5-----5-----------|-0-3-5-0-3-5-0-3-5-0-6-5-|-0-3-5-0-3-5-0-3-5-0-6-5--|
    
    
    |-------------------------|-------------------------|--------------------------|
    |-------------------------|-------------------------|--------------------------|
    |-------------------------|-------------------------|--------------------------|
    |-0-3-5-0-3-5-0-3-5-0-6-5-|-0-3-5-0-3-5-0-3-5-0-6-5-|-0-3-5-0-3-5-0-3-5-0-6-5--|
    
    
    |-------------------------|-------------------------|--------------------------|
    |-------------------------|-------------------------|--------------------------|
    |-------------------------|-------------------------|--------------------------|
    |-0-3-5-0-3-5-0-3-5-0-6-5-|-0-3-5-0-3-5-0-3-5-0-6-5-|-0-3-5-0-3-5-0-3-5-0-6-5--|
    
    
    |-------------------------|-------------------------|--------------------------|
    |---------------------5---|---------------------5---|---------------------5----|
    |---3-5---5-6---5-6-7---6-|---3-5---5-6---5-6-7---6-|---3-5---5-6---5-6-7---6--|
    |-5-----5-----5-----------|-5-----5-----5-----------|-5-----5-----5------------|
    
    
                               2/2
    |-------------------------|----------|-------------|------|
    |---------------------5---|----------|-------------|------|
    |---3-5---5-6---5-6-7---6-|----------|----------8--|-7----|
    |-5-----5-----5-----------|-0--------|-(0)---------|------|
    
    
    |-------------|----------|-------------|------|
    |-------------|----------|----------3--|-2----|
    |-(7)---------|----------|-------------|------|
    |----------1--|-0--------|-(0)---------|------|
    
    
    |------------|-----------------|-----------------|-----------------|
    |-(2)--------|-----------------|-----------------|-----------------|
    |------------|-----------------|-------------2---|-----------------|
    |------------|-0-0-0-0-0-0-0-0-|-0-0-0-0-0-1---1-|-0-0-0-0-0-0-0-0-|
    
    
    |-----------------|-----------------|-----------------|-----------------|
    |-----------------|-----------------|-----------------|-----------------|
    |-----2-----3---4-|-----------------|-------------2---|-----------------|
    |-0-1---1-2---3---|-0-0-0-0-0-0-0-0-|-0-0-0-0-0-1---1-|-0-0-0-0-0-0-0-0-|
    
    
    |-----------------|-----------------|-----------------|-----------------|
    |-----------------|-----------------|-----------------|-----------------|
    |-----2-----3---4-|-----------------|-------------2---|-----------------|
    |-0-1---1-2---3---|-0-0-0-0-0-0-0-0-|-0-0-0-0-0-1---1-|-0-0-0-0-0-0-0-0-|
    
    
    |---------|-----------------|-----------------|-----------------|
    |---------|-----------------|-----------------|-----------------|
    |---------|-----------------|-------------2---|-----------------|
    |---------|-0-0-0-0-0-0-0-0-|-0-0-0-0-0-1---1-|-0-0-0-0-0-0-0-0-|
    
    
    |----------|-------------|-----------------|----------*|
    |----------|-------------|---3-----3-------|----------*|
    |-3--------|-(3)---------|-----2-----1-----|----------*|
    |----------|----------1--|-0-----0-----0-1-|-0--------*|
    
    
    Just try switching the open As to 5 on the E-string where ever it might make playing easier.
     
  8. Serpent Grooves

    Serpent Grooves

    Mar 3, 2008
    Code:
    Song: Spiderbaby (Yeah-Yeah-Yeah)
    Album: Lasexorcisto, Devil Music Vol. 1
    Band: White Zombie
    Instrument: Bass Guitar
    Bassist: Sean Yseult
    
    This is a cool song. So far I haven't seen an accurate tab for it. 
    I am 95% sure on this, as I tabbed it myself by ear.
    
    Legend: / Slide up \ Slide down
    
    Standard Tuning (E, A, D, G)
    
    Riff 1 (Intro)
    |-----------------------------------------------------------|[X1]
    |-----------------------------------------------------------|
    |-2----------2------------------2---------2-----------------|
    |------3-3-------3-3--3-3-3-3-------3-3-------3-3-/12-\3----|
    
    Riff 2 "I knew I hit the edge when I saw the spider..."
    |--------------------------------------------|[X8]
    |--------------------------------------------|
    |-------------------0-1-2--------------------|
    |-3-3-0-3-3-0-3-3-0--------------------------|
    
    Riff 3 "Power breakdown, get on it..."
    |--------------------------------------------|[X4]
    |-------2-----2-------2----------------------|
    |-----------------2-3------------------------|
    |-0-3-0---0-3---0----------------------------|
    
    Riff 2 [X4]
    Riff 3 [X4]
    
    Riff 4 *Guitar does this once, then you enter right on 2 (B) at the end
    and start playing* 
    "Well deep dish on the body, spin out sugar devil..."
    |-----------------------------------------------------------------|[X4]
    |-----------------------------------------------------------------|
    |-2-0-0-3-0-0-2-0-0-3-0-2-0-2-3---0--0-3-0-0-2-0-0-3-0-0-2-0-2----|
    |-----------------------------------------------------------------|
    
    |-----------------------------------------------------------------|[X1]
    |-----------------------------------------------------------------|
    |-----------------------------------------------------------------|
    |---3-3-3---3-3---3-3---3-3-3-3---3----3-3---3-3---3--------------|
    
    Riff 4 [X2]
    Riff 3 [X8]
    
    Riff 5 *On the second time, don't include the slide, just end on 1 (F)*
    |--------------------------------------------------------------------|[X2]
    |----2---------------2-----------------------------------------------|
    |------1---------------1---------------------------------------------|
    |-0-------0--3-3--0------3-3-0-2-1-/10-\0----------------------------|
    
    |------------------------------------------|[X1]
    |------------------------------------------|
    |------------------------------------------|
    |-2-2---2-2---2-2---2-2---0-/12------------|
    
    Riff 6 (Outro)
    |-----------------------------------------------|[X10]
    |-----------------------------------------------|
    |-----------2-0---------0------------2-0--------|
    |-2-2-2---0-----2-2---0----2-2-2---0-----2-2----|
    
    
    That's the song. Hope you like it.
    
     
  9. Serpent Grooves

    Serpent Grooves

    Mar 3, 2008
    Take note: I did not make this tab. This is one I found on Ultimateguitar.com. Go look up white zombie and you'll see it listed. For now, its the only bass tab out there for this song. Sounds pretty accurate to me, but I'll work on it more.

    Code:
    Intro
    [-------------------------------------------------------------------------]
    [-------------------------------------------------------------------------]
    [---------9-7------7----------9-7------12-12--12-12--12-12--12-12--12--12-]
    [--2-----------7------5-4-2--------7--------------------------------------]
    
    Riff 1
    [--------------------------------------------------]x2
    [---------------------------------------------20---]
    [------------3h2h1-3h2p0---------------------------]
    [--22223-02-----------------22223-022222-----------]
    
    Riff 2
    [--------------------------------------------------------------------------]
    [----------------0h2-----------------------------------0h2-4-2-------------]
    [--------------------------------------------------------------4-3-2-0-----]
    [-02-03-05-07-0--------02-03-05-07-3—--02-03-05-07-0-----------------------]
    
    Verse
    [-------------------------------------------------------------------]x2
    [-------------------------------------------------------------------]
    [-------------------------------------------------------------------]
    [-02-02-02--5-4-3--02-02-02--0-1-2--02-02-02--5-4-3--02-02-02-0-1-2-]
    
    Chorus
    [------------------------------------------------]x2
    [------------------------------------------------]
    [---------0--------3-2----------0----------------]
    [-2222-------2222---------2222----22223-223------]
    
    Riff 2
    Verse
    Chorus
    Verse
    
    Bridge
    [----------------------------------------------------|
    [----------------------------------------------------|
    [--------------------5-4-3--------------------5-4-3--|
    [-02-02--5-4-3—02-02-------02-02--5-4-3—02-02--------|
    
    -----------------------------------------------------------]
    -----------------------------------------------------------]
    ---------3-2-0-----------5-4-3--------3-2-0---------5-4-3--]
    --02-02----------02-02----------02-02--------02-02---------]
    
    Verse, Different variation
    [---------------------------------------------------------------]
    [---------------------------------------------------------------]
    [---------------------------------------------------------------]
    [-02-02-02--0-1-2--02-02-02--0-1-2--02-02-02--0-1-2--02-0h2-0h2-]
    
    Fill
    [----------------------------------------------------]
    [----------------------------------------------------]
    [--------------------2-0-------------------------2-0-]
    [--0h2-0h2-0h2--5-0--------0h20h20h2-2222222-5-0-----]
    
    
    Fill 2                           Then
    [---------------------------]x4  [----9----------------------]
    [---7-7-7-777-7-7-7--9-7----]    [---------------------------]
    [--0-0-0-0---0-0-0-0-----9--]    [-7---------7-------\17-----]
    [---------------------------]    [-------\12-----------------]
    
    Riff 1
    Riff 2
    Verse
    Chorus
    Outro/ Same as Intro
    
     
  10. Serpent Grooves

    Serpent Grooves

    Mar 3, 2008
    This is the intro to the song Cosmic Monsters Inc. I am still working on the whole song.
    Code:
    Song: Cosmic Monsters Inc.
    Album: Lasexorcisto, Devil Music Vol. 1
    Band: White Zombie
    Instrument: Bass Guitar
    Bassist: Sean Yseult
    
    Intro:
    |----------------------|[X4]
    |-----6-5--------------|
    |-6-5-----6-5----------|
    |-------------8-7-8----|
    
    
    
     
  11. Serpent Grooves

    Serpent Grooves

    Mar 3, 2008
    This is the intro and chorus to the song. Still working on the whole thing.

    Code:
    Song: Grindhouse (A Go-Go)
    Album: Lasexorcisto, Devil Music Vol. 1
    Band: White Zombie
    Instrument: Bass Guitar
    Bassist: Sean Yseult
    
    Intro:
    |----------------------------------|
    |----------------------------------|
    |----------------------------------|
    |-0---1---5---1---0---1---5---0----|
    
    
    Riff 1:
    |------------------------------------|
    |------------------------------------|
    |------------------------------------|
    |-0-0-0-1-0-0-0-0-1--0-0-0-1--3-4----|
    
     
  12. Serpent Grooves

    Serpent Grooves

    Mar 3, 2008
    This is another excellent powertab (not my work). I recommend this song always.

    Code:
              01-WELCOME-TO-PLANET-MOTHER****ER-PSYCHOHOLIC-SLAG (Bassline)
    
    
      Q=122
     4/4
      Gtr I
    |---------|---------|---------|-----|
    |---------|---------|---------|-----|
    |---------|---------|---------|-----|
    |---------|---------|---------|-----|
    
    
    |-----------------|-----------------|-----------------|-----------------|
    |-----------------|-----------------|-----------------|-----------------|
    |-----------------|-----------------|-----------------|-----------------|
    |-0-0-0-0-0-0-0-0-|-0-0-0-0-0-0-0-0-|-0-0-0-0-0-0-0-0-|-0-0-0-0-0-0-0-0-|
    
    
    |----------------------|----------------------|----------------------|
    |----------------------|----------------------|----------------------|
    |----------------------|----------------------|----------------------|
    |-0-0-3-0-0--3-0-3-0-3-|-0-0-3-0-0--3-0-3-0-3-|-0-0-3-0-0--3-0-3-0-3-|
    
    
    |---------------|----------------------|----------------------|
    |---------------|----------------------|----------------------|
    |---------------|----------------------|----------------------|
    |-0-0-3-0-0-----|-0-0-3-0-0--3-0-3-0-3-|-0-0-3-0-0--3-0-3-0-3-|
    
    
    |----------------------|---------------|----------------------|
    |----------------------|---------------|----------------------|
    |----------------------|---------------|----------------------|
    |-0-0-3-0-0--3-0-3-0-3-|-0-0-3-0-0-----|-0-0-3-0-0--3-0-3-0-3-|
    
    
    |----------------------|----------------------|--------------------|
    |----------------------|----------------------|--------------------|
    |----------------------|----------------------|--------------------|
    |-0-0-3-0-0--3-0-3-0-3-|-0-0-3-0-0--3-0-3-0-3-|-0-0-3-0-0--3-0-3---|
    
    
    |----------------------|----------------------|----------------------|
    |----------------------|----------------------|----------------------|
    |----------------------|----------------------|----------------------|
    |-0-0-3-0-0--3-0-3-0-3-|-0-0-3-0-0--3-0-3-0-3-|-0-0-3-0-0--3-0-3-0-3-|
    
    
    |-------------------|-----------------------|------------------------|
    |-------------------|-----------------------|------------------------|
    |-------------------|-----------------------|------------------------|
    |-0-0-3-0-0--3-0-3--|-0-0-3-0-0-0-3-0-3-0-3-|-0-0-3-0-0-0-3-0-3-0-3--|
    
    
    |-----------------------|--------------------|-----------------------|
    |-----------------------|--------------------|-----------------------|
    |-----------------------|--------------------|-----------------------|
    |-0-0-3-0-0-0-3-0-3-0-3-|-0-0-3-0-0-0-3-0-3--|-0-0-3-0-0--3-0-3-0-3--|
    
    
    |----------------------|----------------------|--------------------|
    |----------------------|----------------------|--------------------|
    |----------------------|----------------------|--------------------|
    |-0-0-3-0-0--3-0-3-0-3-|-0-0-3-0-0--3-0-3-0-3-|-0-0-3-0-0--3-0-3---|
    
    
    |----------------------|----------------------|----------------------|
    |----------------------|----------------------|----------------------|
    |----------------------|----------------------|----------------------|
    |-0-0-3-0-0--3-0-3-0-3-|-0-0-3-0-0--3-0-3-0-3-|-0-0-3-0-0--3-0-3-0-3-|
    
    
    |-------------------|-----------------------|------------------------|
    |-------------------|-----------------------|------------------------|
    |-------------------|-----------------------|------------------------|
    |-0-0-3-0-0--3-0-3--|-0-0-3-0-0-0-3-0-3-0-3-|-0-0-3-0-0-0-3-0-3-0-3--|
    
    
    |-----------------------|--------------------|------------------------|
    |-----------------------|--------------------|------------------------|
    |-----------------------|--------------------|------------------------|
    |-0-0-3-0-0-0-3-0-3-0-3-|-0-0-3-0-0-0-3-0-3--|-0-0-3-0-0-0-3-0-3-0-3--|
    
    
    |-----------------------|-----------------------|---------------------|
    |-----------------------|-----------------------|---------------------|
    |-----------------------|-----------------------|---------------------|
    |-0-0-3-0-0-0-3-0-3-0-3-|-0-0-3-0-0-0-3-0-3-0-3-|-0-0-3-0-0-0-3-0-3---|
    
    
    |-----------|-----------|-----------|-------------|
    |-----------|-----------|-----------|-------------|
    |-----------|-----------|-----------|-------------|
    |-2-2-------|-2-2-------|-2-2-------|-2-2---3--1--|
    
    
    |----------|------------|------------|-----------------|
    |----------|------------|------------|-----------------|
    |----------|------------|------------|---1-(1)---0-----|
    |-2--------|-(2)--------|-(2)--------|-0-------0----3--|
    
    
    |---------------------------|---------------------------|
    |---------------------------|---------------------------|
    |---------------------------|---------------------------|
    |-2-2-2-2-2-2-(2)-2-2-2-2-2-|-2-2-2-2-2-2-(2)-2-2-2-2-2-|
    
    
    |----------------------------|
    |----------------------------|
    |----------------------------|
    |-2-2-2-2-2-2-(2)-2-2-2-2-2--|
    
    
    |-------------------|---------------------------|----------------------------|
    |-------------------|---------------------------|----------------------------|
    |-------------------|---------------------------|----------------------------|
    |-2-2-2-2-2-2-3--1--|-2-2-2-2-2-2-(2)-2-2-2-2-2-|-2-2-2-2-2-2-(2)-2-2-2-2-2--|
    
    
    |---------------------------|-------------------|----------------------------|
    |---------------------------|-------------------|----------------------------|
    |---------------------------|-------------------|----------------------------|
    |-2-2-2-2-2-2-(2)-2-2-2-2-2-|-2-2-2-2-2-2-3--1--|-2-2-2-2-2-2-(2)-2-2-2-2-2--|
    
    
    |---------------------------|---------------------------|--------------------|
    |---------------------------|---------------------------|--------------------|
    |---------------------------|---------------------------|--------------------|
    |-2-2-2-2-2-2-(2)-2-2-2-2-2-|-2-2-2-2-2-2-(2)-2-2-2-2-2-|-2-2-2-2-2-2-3--1---|
    
    
    |---------------------------|---------------------------|
    |---------------------------|---------------------------|
    |---------------------------|---------------------------|
    |-2-2-2-2-2-2-(2)-2-2-2-2-2-|-2-2-2-2-2-2-(2)-2-2-2-2-2-|
    
    
    |----------------------------|
    |----------------------------|
    |----------------------------|
    |-2-2-2-2-2-2-(2)-2-2-2-2-2--|
    
    
    |-----------------|----------|----------|------|
    |-----------------|----------|----------|------|
    |---1-(1)---0-----|----------|----------|------|
    |-0-------0----3--|-2--------|-2--------|-2----|
    
    
    |----------|----------------------|----------------|
    |----------|----------------------|----------------|
    |----------|----------------------|----------------|
    |-2--------|-0-0-3-0-0--3-0-3-0-3-|-0-0-3-0-0---3--|
    
    
    |----------------------|----------------|----------------------|
    |----------------------|----------------|----------------------|
    |----------------------|----------------|----------------------|
    |-0-0-3-0-0--3-0-3-0-3-|-0-0-3-0-0---3--|-0-0-3-0-0--3-0-3-0-3-|
    
    
    |----------------|----------------------|----------------------|
    |----------------|----------------------|----------------------|
    |----------------|----------------------|----------------------|
    |-0-0-3-0-0---3--|-0-0-3-0-0--3-0-3-0-3-|-0-0-3-0-0--3-0-3-0-3-|
    
    
    |-----------------------|-----------------------|-----------------------|
    |-----------------------|-----------------------|-----------------------|
    |-----------------------|-----------------------|-----------------------|
    |-0-0-3-0-0-0-3-0-3-0-3-|-0-0-3-0-0-0-3-0-3-0-3-|-0-0-3-0-0-0-3-0-3-0-3-|
    
    
    |--------------------|-----------------------|------------------------|
    |--------------------|-----------------------|------------------------|
    |--------------------|-----------------------|------------------------|
    |-0-0-3-0-0-0-3-0-3--|-0-0-3-0-0-0-3-0-3-0-3-|-0-0-3-0-0-0-3-0-3-0-3--|
    
    
    |-----------------------|------------------|------------|--------|
    |-----------------------|------------------|------------|--------|
    |-----------------------|------0-(0)---0-1-|-(1)--------|-(1)----|
    |-0-0-3-0-0-0-3-0-3-0-3-|-0--3-------3-----|------------|--------|
    
    
                   Q=84         Q=82
    |------------|------------|------------|--------|
    |------------|------------|------------|--------|
    |-(1)--------|-(1)--------|-(1)--------|-(1)----|
    |------------|------------|------------|--------|
    
    
                                Q=82
    |------------|------------|-----------|-----------|
    |------------|------------|-----------|-----------|
    |-(1)--------|-(1)--------|-----------|-----------|
    |------------|------------|-0---0-----|-0---0-----|
    
    
                              Q=82
    |-----------|-----------|-------------------------|
    |-----------|-----------|-------------------------|
    |-----------|-----------|---1---0---------1-2-1-0-|
    |-0---0-----|-0---0-----|-0---0---0-3-2-0---------|
    
    
    |-------------------------|-------------------------|-----------------------|
    |-------------------------|-------------------------|-----------------------|
    |---1---0---------2-3-2-1-|---1---0---------1-2-1-0-|---1---0-------2-------|
    |-0---0---0-3-2-0---------|-0---0---0-3-2-0---------|-0---0---0-2-3---3-0-1-|
    
    
      Q=82
    |-------------------------|-------------------------|--------------------------|
    |-------------------------|-------------------------|--------------------------|
    |---1---0---------1-2-1-0-|---1---0---------2-3-2-1-|---1---0---------1-2-1-0--|
    |-0---0---0-3-2-0---------|-0---0---0-3-2-0---------|-0---0---0-3-2-0----------|
    
    
                              Q=82
    |-----------------------|-----------|-----------|-----------|
    |-----------------------|-----------|-----------|-----------|
    |---1---0-------2-------|-----------|-----------|-----------|
    |-0---0---0-2-3---3-0-1-|-0---0-----|-0---0-----|-0---0-----|
    
    
                  Q=82
    |-----------|-------------------------|--------------------------|
    |-----------|-------------------------|--------------------------|
    |-----------|---1---0---------1-2-1-0-|---1---0---------2-3-2-1--|
    |-0---0-----|-0---0---0-3-2-0---------|-0---0---0-3-2-0----------|
    
    
                                                        Q=82
    |-------------------------|-----------------------|-----------|
    |-------------------------|-----------------------|-----------|
    |---1---0---------1-2-1-0-|---1---0-------2-------|-----------|
    |-0---0---0-3-2-0---------|-0---0---0-2-3---3-0-1-|-0---0-----|
    
    
                                          Q=82
    |-----------|-----------|-----------|-----------|
    |-----------|-----------|-----------|-----------|
    |-----------|-----------|-----------|-----------|
    |-0---0-----|-0---0-----|-0---0-----|-0---0-----|
    
    
                                          Q=82
    |-----------|-----------|-----------|-----------|
    |-----------|-----------|-----------|-----------|
    |-----------|-----------|-----------|-----------|
    |-0---0-----|-0---0-----|-0---0-----|-0---0-----|
    
    
                                          Q=82
    |-----------|-----------|-----------|-----------|
    |-----------|-----------|-----------|-----------|
    |-----------|-----------|-----------|-----------|
    |-0---0-----|-0---0-----|-0---0-----|-0---0-----|
    
    
                                          Q=82
    |-----------|-----------|-----------|-----------|
    |-----------|-----------|-----------|-----------|
    |-----------|-----------|-----------|-----------|
    |-0---0-----|-0---0-----|-0---0-----|-0---0-----|
    
    
    |-----------|-----------|-----------*|
    |-----------|-----------|-----------*|
    |-----------|-----------|-----------*|
    |-0---0-----|-0---0-----|-0---0-----*|
    
    
    
    ***************************************************************************************
    * Generated using Power Tab Editor by Brad Larsen - http://powertab.guitarnetwork.org *
    ***************************************************************************************
    
     

Share This Page

  1. This site uses cookies to help personalise content, tailor your experience and to keep you logged in if you register.
    By continuing to use this site, you are consenting to our use of cookies.